Tangerine-Moist
Creature

E A D G B E


Intro: Free Time

gtr. 1 (cello, fade in)

e-----------------------------------------------------------------
b-----------------------------------------------------------------
g-----------------------------------------------------------------
d-----------------------------------------------------------------
a-----------------------------------------------------------------
e-------------------------------2~~~~~~~~~~~~~~~~~----------------

gtr. 2

e-----------------------------------------------------------------
b-----------------------------------------------------------------
g-----------------------------------------------------------------
d-------------------------4---------------------------------------
a-------------------------2---------------------------------------
e-----------------------------------------------------------------

gtr. 1 (cello)

e-----------------------------------------------------------------
b-7~~~~~~~~~~~~--------------------7~~~~~~~~~~~~~-----------------
g----------------------9----7--------------------------------9p7--
d-----------------------------------------------------------------
a-----------------------------------------------------------------
e-----------------------------------------------------------------

Fig. 1 (gtr. 3)

Bm

e-----------------------------------------------------------------
b---------3----------------3--------------3-----------------3-----
g-4---4-4-4---4-4----4---4-4---4-4--4--4--4---4-4----4---4--4--0--
d-4---4-4-4---4-4----4---4-4---4-4--4--4--4---4-4----4---4--4--0--
a-2-----------2-2----2---2-----2-2--2--2------2-2----2---2--------
e-----------------------------------------------------------------

gtr. 1 (cello)

e-----------------------------------------------------------------
b-----------------------------------------------------------------
g-9~~~~~~~~~~~~~~~------7---9------7~~~~~~~~~-------6----7----9---
d-----------------------------------------------------------------
a-----------------------------------------------------------------
e-----------------------------------------------------------------

Fig. 1 (gtr. 3)

G/D                                 F#m/C#

e-----------------------------------------------------------------
b---------3----------------3----------------2---------------2-----
g-4---4-4-4---4-4----4---4-4---4----2---2-2-2---2-2---2---2-2-2-2-
d-5---5-5-----5-5----5---5-----5-4--4---4-4-4---4-4---4---4-4-4-4-
a-5-------------5----5---5-----5-4--4---4-4-4---4-4---4---4-4-4-4-
e-----------------------------------------------------------------

gtr. 3 plays Fig. 1

gtr. 1 (cello)

e-----------------------------------------------------------------
b-7~~~~~~~~~~~~------------------7~~~~~~~~~~~~~~~~~~~-------------
g--------------------9----7-------------------------------9---7---
d-----------------------------------------------------------------
a-----------------------------------------------------------------
e-----------------------------------------------------------------

Fig. 1a (gtr. 4)

e-----------------------------------------------------------------
b-----------------------------------------------------------------
g-4--4--4---4-4----4---4-4---4-4--4--4--4---4-4----4---4-4---0-0--
d-4--4--4---4-4----4---4-4---4-4--4--4--4---4-4----4---4-4---0-0--
a-2--2--2---2-2----2---2-2---2-2--2--2--2---2-2----2---2-2--------
e-----------------------------------------------------------------

gtr. 1 (cello)

e-----------------------------------------------------------------
b-----------------------------------------------------------------
g-9~~~~~~~~~~~~~~~~~---7----9----7-------------6------------------
d-----------------------------------------------------------------
a-----------------------------------------------------------------
e-----------------------------------------------------------------

Fig. 1a

e-----------------------------------------------------------------
b-----------------------------------------------------------------
g-4--4--4---4-4----4-4--4---4----2--2--2---2-2----2---2--2--0-----
d-5--5--5---5-5----5-5--5---5-4--4--4--4---4-4----4---4--4--0-----
a-5--5--5---5-5----5-5--5---5-4--4--4--4---4-4----4---4--4--------
e-----------------------------------------------------------------

Verses: w/ Fig. 1

Riff A w/ delay

Bm

e-2----2---2---------------2----2---2--------------
b------------5----3-------------------5----3-------
g------------------------2----------------------2--
d--------------------------------------------------
a--------------------------------------------------
e--------------------------------------------------

G/D

e--------------------------------------------------
b--------------------------------------------------
g--------------------4-----2----2---2-2-------2----
d-5----5---5-5----5-----5--4----4---4-4----4-----4-
a--------------------------------------------------
e--------------------------------------------------

Pre Chorus: w/ slow phaser

e------------------------------------------------------------
b------------------------------------------------------------
g------------------------------------------------------------
d-2----2---2-2---2--2--2---2-2--3--3--3---3-3--3--3----------
a-0----0---0-0---0--0--0---0-0--1--1--1---1-1--1--1--5---5-5-
e----------------------------------------------------3---3-3-

e------------------------------------------------------------
b------------------------------------------------------------
g------------------------------------------------------------
d------------------------------------------------------------
a-5--5--5---5-5-5-5---5-5-5-5-5-5-5---5-5---5-5--5--5-5-5-5--
e-3--3--3---3-3-3-3---3-3-3-3-3-3-3---3-3---3-3--3--3-3-3-3--

Chorus:

e--------------------------------------------------------
b--------------------------------------------------------
g-9--9--9---9-9----6-6--6--6--5--5--5---5-5-----2--2--2--
d-9--9--9---9-9----6-6--6--6--5--5--5---5-5-----2--2--2-- x3
a-7--7--7---7-7----4-4--4--4--3--3--3---3-3-----0--0--0--
e--------------------------------------------------------

e--------------------------------------------------------
b--------------------------------------------------------
g-9--9--9---9-9----6-6--6--6--5--5--5---5-5--5--5--5-5-5-
d-9--9--9---9-9----6-6--6--6--5--5--5---5-5--5--5--5-5-5- 
a-7--7--7---7-7----4-4--4--4--3--3--3---3-3--3--3--3-3-3-
e--------------------------------------------------------

Interlude:

e-0-----0---0-0----0-0---0---0---0-0---0----0---0-0---0-0--0-0-0--
b-2-----2---2-2----2-2---2---0---0-0---3----3---3-3---3-3--3-3-3--
g-4-----4---4-4----4-4---4---2---2-2---2----2---2-2---2-2--2-2-2--
d-2-----2---2-2----2-2---2---3---3-3---0----0---0-0---0-0--0-0-0--
a-0-----0---0-0----0-0---0---0---0-0------------------------------
e-----------------------------------------------------------------

Bridge:

gtr. 2

e-------5-----3-----5-----2-----2-----2-----------
b-5-----------------------------------------5--3--
g----2-----2-----2-----2-----2-----2-----2--------
d-------------------------------------------------
a-------------------------------------------------
e-------------------------------------------------

gtr. 3&4

e-------------------------------------------------
b-------------------------------------------------
g-2-----2--2-2---4--4--0--2-----2--2-2---2--2--4--
d-2-----2--2-2---3--3--0--4-----4--4-4---3--3--3--
a-0-----0--0-0---0--0-----0-----0--0-0---0--0--0--
e-------------------------------------------------


that’s about all


Текст, аккорды и табулатура для песни "Tangerine", исполняет "Moist".
Используемые в песне аккорды можно найти в разделе Как брать аккорды. Аккорды для шестиструнной гитары. Другие песни можно найти на нашем сайте, воспользовавшись алфавитным указателем вверху страницы.


 
Ошибка в тексте? Выделите ошибку и нажмите Ctrl+Enter