Moist - Shotgun
Tabbed By: tza
EMail: [email protected]
Creature

E A D G B E


Intro: Riff A (Bass)

x2
g-----------------------------------------------------
d-----------------------------------------------------  
a-5---5----5-5---2-2-2---2-2-2---4-4---x-4---------0--  
e--------------------------------------------2--2-----

Verse: Riff A

Interlude:

e---9--------7---5------------9--------7---5----------
b----------------------7---------------------7--------
g-9--------6---6-----6---6--9--------6---6--------6---
d-----------------------------------------------------
a-----------------------------------------------------
e-----------------------------------------------------

Verse: Riff A

Chorus:

e-2-2---------------------------------------
b-3-2----3---2----------------2----2--2--2--
g-2-2----4---4-----4-5-6------2----2--2--2--
d-0-2----4---4-----4-5-6------4----4--4--4--
a---0----2---2-----2-3-4------4----4--4--4--
e--------2---2-----2-3-4------2----2--2--2--

e-2-2---------------------------------------
b-3-2----2---2----------------2----2--2--2--
g-2-2----4---4-----4---6------2----2--2--2--
d-0-2----4---4-----4---6------4----4--4--4--
a---0----2---2-----2---4------4----4--4--4--
e--------2---2-----2---4------2----2--2--2--

e-2-2---------------------------------------
b-3-2----3---2---------5------2----2-----2--
g-2-2----4---4-----4---6------2----2-----2--
d-0-2----4---4-----4---6------4----4-----4--
a---0----2---2-----2---4------4----4-----4--
e--------2---2-----2---4------2----2-----2--

e-2-2---------------------------------------
b-3-2----3---2---------5------2----2-----2--
g-2-2----4---4-----4---6------2----2-----2--
d-0-2----4---4-----4---6------4----4-----4--
a---0----2---2-----2---4------4----4-----4--
e--------2---2-----2---4------2----2-----2--

Verse 3:

x3
e-----------------------------------------------------------
b-----------------------------------------------------------
g-----------------------------------------------------------
d-----------------------------------------------------------
a-2h5-5-5---x-5---2-2--2---2-2-2h4-4-4---x-4--x---------2-2-
e-----------------------------------------------x-2--2------
pm

e-----------------------------------------------------------
b-----------------------------------------------------------
g-----------------------------------------------------------
d-----------------------------------------------------------
a-2h5-5-5---x-5---2-2--2---2-2-2h4-4-4---x-4----------------
e-----------------------------------------------2---2---2---

Guitar Solo:

x2
e-------------------------------------------------------
b-------------------------------------------------------
g---------------------------------------11---9----------
d-----------------------------11--9---9--9-----11p9-----
a-9---9-9--9--9----9-9-9-9h12-----------------------12--
e-------------------------------------------------------

e--------------------9---------9----------------9-------9---------
b-9h10--10-10--10----9--9---9--9--9h10---10-10-10-12---10-9h10--9-
g-9h11--11-11--11---11--9---9--9--9h11---11-11-11-11---11-9h11--9-
d-9------9--9---9-------9---9-----9-------9--9-----9----9-9-----9-
a-9------9--9---9-------9---9-----9-------9--9-----9----9-9-----9-
e-----------------------------------------------------------------

e---------------9----9--9--9---9--9--9--9--9----9-----------------
b-9h10--10-10--10----9--9--9---9-10-10-10-10---10-----------------
g-9h11--11-11--11----9--9--9---9-11-11-11-11---11-----------------
d-9------9--9---9----9--9--9---9--9--9--9--9----9-----------------
a-9------9--9---9----9--9--9---9--9--9--9--9----9-----------------
e-----------------------------------------------------------------

Outro:

e-----------------------------------------------------------------
b-----------------------------------------------------------------
g-----------------------------------------------------------------
d-----------------------------------------------------------------
a-7h9-9-9--9--9----9-9--9--9--7h9-9-9--9--9----9-9-9--9-7/9-9--9--
e-----------------------------------------------------------------

e-----------------------------------------------------------------
b-9h10-10-10-10--9----10--9---9-9--9h10-10-10--10--10----9--9--9--
g-9-----9--9--9--9----11--9---9-9--9h11-11-11--11--11----9--9--9--
d-9h11-11-11-11--9-----9--9---9-9--9-----9--9---9---9----9--9--9--
a-9-----9--9--9---------------------------------------------------
e-----------------------------------------------------------------

e-----------------------------------------------------------------
b-9h10-10-10-10--12---10---9h10-9--9h10-10-10--10---9--9--9-9-----
g-9h11-11-11-11--11---11---9h11-9--9h11-11-11--11---9--9--9-9-----
d-9-----9--9--9---9----9---9----9--9-----9--9---9---9--9--9-9-----
a-----------------------------------------------------------------
e-----------------------------------------------------------------

e-----------------------------------------------------------------
b-9h12-12-12-----12------12--12--10---10--------------------------
g-9-----9--9------9-------9---9--11---11--------------------------
d-9-----9--9------9-------9---9--11---11--------------------------
a---------------------------------9----9--------------------------
e-----------------------------------------------------------------


that's all

trevor jones
[email protected]


Текст, аккорды и табулатура для песни "Shotgun", исполняет "Moist".
Используемые в песне аккорды можно найти в разделе Как брать аккорды. Аккорды для шестиструнной гитары. Другие песни можно найти на нашем сайте, воспользовавшись алфавитным указателем вверху страницы.


 
Ошибка в тексте? Выделите ошибку и нажмите Ctrl+Enter