Moist - Hate
Tabbed By: tza
EMail: [email protected]
Creature

< > = harmonics


Intro:

e--------------------7----------------------------------------
b-5--------------------10---------------------0---------------
g-----------------------------------------------------------------
d-----------------------------11-11--12---------------------------
a-----------------------------------------------------------------
e-----------------------------------------------------------------

e--------------------------7----------------------------------
b----------------------------10-----------------------------2-
g-9---------------------------------------------------------------
d--------------------------11-------11-11--12---------------------
a-----------------------------------------------------------------
e-----------------------------------------------------------------


Verses: Riff A

e--------------------------------------------------------
b-3p2-----2-------------------------------------------2--
g-----4------2---------2---------------------------2-----
d-------4--------4--------4p2---2------------------2----- x3
a-----------------------------5---5-4--2----2--0---------
e--------------------------------------------------------

e--------------------------------------------------------
b-3p2-----2----------------------------------------------
g-----4------2---------2---------------------------------
d-------4--------4--------4p2---2------------------0--2-- 
a-----------------------------5---5-4--2----2--0---------
e--------------------------------------------------------

Chorus:

e--------------------------------------------------------
b--------------------------------------------------------
g-6-----6---4---------4--4---6-----6---4---------4--4----
d-7-----7---5---------5--5---7-----7---5---------5--5----
a-7-----7---5---------5--5---7-----7---5---------5--5----
e-5-----5---3---------3--3---5-----5---3---------3--3----

Guitar Solo:

e---------------------------------------------------
b-----0-------0---------------0----0----0-----------
g---------------------------------------------------
d-12----11-11---9----4---7-4----5----2----2-0------- x2
a---------------------------------------------4-2---
e---------------------------------------------------

e-------------------------------------------------------------
b-----0-----0------0-----0---------0-----------0--------------
g-------------------------------------------------------------
d-12----11----14-----14----16--12----14---11-----11--12-11-9--
a-------------------------------------------------------------
e-------------------------------------------------------------

e-------------------------------------------------------------
b-----0-----0------0-----0----------0---------0-0---------0-0-
g---------------------------------------------------------0-0-
d-12----11----14-----14----14--19-----19---19-----19-19-------
a-------------------------------------------------------------
e-------------------------------------------------------------

e-------------5----5-5-5--------------------5-----5-5---------
b-8----8-8--8-8b---8b8b8br--8-8-8----8----8-8b----8b8b--8-----
g-7b---7b7b-------------------7-7b---7br------------------7---
d-------------------------------------------------------------
a-------------------------------------------------------------
e-------------------------------------------------------------

e----------------5----5-5-5-5---------------------------------
b-8----8--8----8-8b---8b8b8b8br----------8-8-----8-8----8-8---
g-7b---7b-7br-------------------0-0--7b------7b------7b---7b--
d-------------------------------------------------------------
a-------------------------------------------------------------
e-------------------------------------------------------------


that’s all

trevor jones
[email protected]


Текст, аккорды и табулатура для песни "Hate", исполняет "Moist".
Используемые в песне аккорды можно найти в разделе Как брать аккорды. Аккорды для шестиструнной гитары. Другие песни можно найти на нашем сайте, воспользовавшись алфавитным указателем вверху страницы.


 
Ошибка в тексте? Выделите ошибку и нажмите Ctrl+Enter