The Moffatts-Lara(My Love)
Submitted by Edward, from [email protected]


Intro:
e|------------|------------|------------|------------|-------------0--------0-|------------|------------|------------------------------------------|
B|-------3----|-------3----|-------3----|----------3-|-------0--------0-------|-------1----|-------1----|-------2-----2--3-----2--------2-----2--3-|
G|----2-----2-|----2-----2-|----------2-|------------|----0-----0--------0----|----0-----0-|----0-----0-|----2-----2-----------------2-----2-------|
D|-0----------|------------|----0-------|----0-------|------------------------|------------|------------|------------------------------------------|
A|------------|------------|------------|------------|------------------------|-3----------|-2----------|-0-----------------0-----0----------------|
E|------------|-2----------|-3----------|-3-----2----|-0----------------------|------------|------------|------------------------------------------|


Verse 1:
e|------------|------------|------------|------------|-------------0--------0-|------------|------------|------------------------------------------|
B|-------3----|-------3----|-------3----|----------3-|-------0--------0-------|-------1----|-------1----|-------2-----2--3-----2--------2-----2--3-|
G|----2-----2-|----2-----2-|----------2-|------------|----0-----0--------0----|----0-----0-|----0-----0-|----2-----2-----------------2-----2-------|
D|-0----------|------------|----0-------|----0-------|------------------------|------------|------------|------------------------------------------|
A|------------|------------|------------|------------|------------------------|-3----------|-2----------|-0-----------------0-----0----------------|
E|------------|-2----------|-3----------|-3-----2----|-0----------------------|------------|------------|------------------------------------------|
               Searched this world    all    over                   
for that one     special     girl


e|------------|------------|------------|------------|-------------0--------0-|------------|------------|------------------------------------------|
B|-------3----|-------3----|-------3----|----------3-|-------0--------0-------|-------1----|-------1----|-------2-----2--3-----2--------2-----2--3-|
G|----2-----2-|----2-----2-|----------2-|------------|----0-----0--------0----|----0-----0-|----0-----0-|----2-----2-----------------2-----2-------|
D|-0----------|------------|----0-------|----0-------|------------------------|------------|------------|------------------------------------------|
A|------------|------------|------------|------------|------------------------|-3----------|-2----------|-0-----------------0-----0----------------|
E|------------|-2----------|-3----------|-3-----2----|-0----------------------|------------|------------|------------------------------------------|
                  Who was lookin'     for     love                   
not dia---monds   or       pearls

Bridge:
e|----------2-------------|----------3-------------|-------3--3-----2-------|---------------------|
B|-------3--------3-------|-------3--------3-------|-------------------3----|-------3-----2-------|
G|----0--------------0----|----0--------------0----|----2-------------------|----2-----------2----|
D|------------------------|------------------------|-0----------------------|-------------------2-|
A|-2----------------------|------------------------|------------------------|-0-------------------|
E|------------------------|-3----------------------|------------------------|---------------------|
                   From   outta nowhere       you entered into     my
life


e|----------2-------------|----------2-------------|----------3-------------|-0-------|
B|-------3--------3-------|-------3--------3-------|-------3--------3-------|-2-------|
G|----0--------------0----|----0--------------0----|----0--------------0----|-2-------|
D|------------------------|------------------------|------------------------|---------|
A|------------------------|-2----------------------|------------------------|-0-------|
E|-2----------------------|------------------------|-3----------------------|---------|
                   Like a ray of sun----shine                        so
   warm  and bright




e|------------|------------|------------|------------|-------------0--------0-|------------|------------|------------------------------------------|
B|-------3----|-------3----|-------3----|----------3-|-------0--------0-------|-------1----|-------1----|-------2-----2--3-----2--------2-----2--3-|
G|----2-----2-|----2-----2-|----------2-|------------|----0-----0--------0----|----0-----0-|----0-----0-|----2-----2-----------------2-----2-------|
D|-0----------|------------|----0-------|----0-------|------------------------|------------|------------|------------------------------------------|
A|------------|------------|------------|------------|------------------------|-3----------|-2----------|-0-----------------0-----0----------------|
E|------------|-2----------|-3----------|-3-----2----|-0----------------------|------------|------------|------------------------------------------|
*2nd Guitar
e|-------------------------------------------------------------------------------------------------------------------------------------------------|
B|-------------5/7--8--7--5------------------------------------5/7--8--7--5-------------------------------3/5--------------------------------------|
G|-7-------------------------7------------6-----7----------------------------7---------------------------------------------------------------------|
D|-------------------------------------------------------------------------------------------------------------------------------------------------|
A|-------------------------------------------------------------------------------------------------------------------------------------------------|
E|-------------------------------------------------------------------------------------------------------------------------------------------------|


Verse 2:
e|------------|------------|------------|------------|-------------0--------0-|------------|------------|------------------------------------------------|
B|-------3----|-------3----|-------3----|----------3-|-------0--------0-------|-------1----|-------1----|-------2-----2--3-----2--------2-----2--3-----3-|
G|----2-----2-|----2-----2-|----------2-|------------|----0-----0--------0----|----0-----0-|----0-----0-|----2-----2-----------------2-----2-------------|
D|-0----------|------------|----0-------|----0-------|------------------------|------------|------------|------------------------------------------------|
A|------------|------------|------------|------------|------------------------|-3----------|-2----------|-0-----------------0-----0----------------------|
E|------------|-2----------|-3----------|-3-----2----|-0----------------------|------------|------------|------------------------------------------------|
               Touched my heart       all    over                      
 in a   very      spe-----cial   way


e|------------|------------|------------|------------|-------------0--------0-|------------------------|------------------------------------------|
B|-------3----|-------3----|-------3----|----------3-|-------0--------0-------|-------1-----1-----1----|-------2-----2--3-----2--------2-----2--3-|
G|----2-----2-|----2-----2-|----------2-|------------|----0-----0--------0----|----0-----0-----0-----0-|----2-----2-----------------2-----2-------|
D|-0----------|------------|----0-------|----0-------|------------------------|------------------------|------------------------------------------|
A|------------|------------|------------|------------|------------------------|-3----------------------|-0-----------------0-----0----------------|
E|------------|-2----------|-3----------|-3-----2----|-0----------------------|------------------------|------------------------------------------|
            I'll never forget  that      moment                        
how it car---ried   me    away

Bridge:
    
e|----------2-------------|----------3-------------|-------3--3-----2-------|------------------------|
    
B|-------3--------3-----3-|-------3--------3-----3-|-------------------3----|-------3-----2--------2-|
    
G|----0--------------0----|----0--------------0----|----2-------------------|----2-----------2-------|
    
D|------------------------|------------------------|-0----------------------|-------------------2----|
    
A|-2----------------------|------------------------|------------------------|-0----------------------|
    
E|------------------------|-3----------------------|------------------------|------------------------|
*2nd Guitar
e|--------------------------------------------------------------------------------------------------------|
B|------------------------------------------------3/5-3-------------------------------------------3/5-3---|
G|-6-7---------6-7---------6-7---------6-7---------------------6-7---------6-7---------6-7----------------|
D|--------------------------------------------------------------------------------------------------------|
A|--------------------------------------------------------------------------------------------------------|
E|--------------------------------------------------------------------------------------------------------|
                        The     time that we shared     clings    to   
my     heart


e|----------2-------------|----------2-------------|----------3-------------|-0-------|
B|-------3--------3-----3-|-------3--------3-----3-|-------3--------3-------|-2-------|
G|----0--------------0----|----0--------------0----|----0--------------0----|-2-------|
D|------------------------|------------------------|------------------------|---------|
A|------------------------|-2----------------------|------------------------|-0-------|
E|-2----------------------|------------------------|-3----------------------|---------|
*2nd Guitar
e|------------------------------------------------------------------------------------|
B|----------------------------------------------------------------------------3/5-----|
G|------6-7---------6-7---------6-7-------------7-------------6-7---------------------|
D|------------------------------------------7/9---------------------------------------|
A|------------------------------------------------------------------------------------|
E|------------------------------------------------------------------------------------|
                    I     knew it was     love            right from 
the   start

Chorus:
           
e|------------|------------|------------|------------|----------0----------|------------------------|
           
B|-------3----|-------3----|-------3----|----------3-|-------0--------0--0-|-------3-----2-----2--3-|
           
G|----2-----2-|----2-----2-|----------2-|------------|----0----------------|----2-----2-----2-------|
           
D|-0----------|------------|----0-------|----0-------|---------------------|------------------------|
           
A|------------|------------|------------|------------|---------------------|-0----------------------|
           
E|------------|-2----------|-3----------|-3-----2----|-0-------------------|------------------------|
*2nd Guitar
e|-----------|
B|-7-8-7-5---|
G|---------7-|
D|-----------|
A|-----------|
E|-----------|
      I'll love you   for---ever    forever  and   more     For all
that you give me  It's you I adore


       e|------------|------------|-0----------|-2----------|
       B|-------3----|-------3----|-3----------|-3----------|
       G|----2-----2-|----2-------|-2----------|-4----------|
       D|-0----------|------------|-0----------|-4----------|
       A|------------|------------|-0----------|-2----------|
       E|------------|-2----------|-3----------|------------|
 I'll love you   for---ever    forever  and   more


   e|----------3-------------|-0----------|
   B|-------3--------3-------|-2----------|
   G|----0--------------0----|-2----------|
   D|------------------------|------------|
   A|------------------------|-0----------|
   E|-3----------------------|------------|
 forever  and  ever                   forever and more




e|------------|------------|------------|------------|-------------0--------0-|------------|------------|------------------------------------------|
B|-------3----|-------3----|-------3----|----------3-|-------0--------0-------|-------1----|-------1----|-------2-----2--3-----2--------2-----2--3-|
G|----2-----2-|----2-----2-|----------2-|------------|----0-----0--------0----|----0-----0-|----0-----0-|----2-----2-----------------2-----2-------|
D|-0----------|------------|----0-------|----0-------|------------------------|------------|------------|------------------------------------------|
A|------------|------------|------------|------------|------------------------|-3----------|-2----------|-0-----------------0-----0----------------|
E|------------|-2----------|-3----------|-3-----2----|-0----------------------|------------|------------|------------------------------------------|


Verse 3:
e|------------|------------|------------|------------|-------------0--------0-|------------|------------|------------------------------------------------|
B|-------3----|-------3----|-------3----|----------3-|-------0--------0-------|-------1----|-------1----|-------2-----2--3-----2--------2-----2--3-----3-|
G|----2-----2-|----2-----2-|----------2-|------------|----0-----0--------0----|----0-----0-|----0-----0-|----2-----2-----------------2-----2-------------|
D|-0----------|------------|----0-------|----0-------|------------------------|------------|------------|------------------------------------------------|
A|------------|------------|------------|------------|------------------------|-3----------|-2----------|-0-----------------0-----0----------------------|
E|------------|-2----------|-3----------|-3-----2----|-0----------------------|------------|------------|------------------------------------------------|
             Things of   time   have   changed                         
 you    drif-----ted        away


e|------------|------------|------------|------------|-------------0----------|------------------------------------------|
B|-------3----|-------3----|-------3----|----------3-|-------0--------0-----0-|-------2-----2--3-----2--------2-----2--3-|
G|----2-----2-|----2-----2-|----------2-|------------|----0-----0--------0----|----2-----2-----------------2-----2-------|
D|-0----------|------------|----0-------|----0-------|------------------------|------------------------------------------|
A|------------|------------|------------|------------|------------------------|-0-----------------0-----0----------------|
E|------------|-2----------|-3----------|-3-----2----|-0----------------------|------------------------------------------|
                   But you left with me  somethin'                     
to      che-----rish   each  day

Bridge:
    
e|----------2-------------|----------3-------------|-------3--3-----2-------|------------------------|
    
B|-------3--------3-----3-|-------3--------3-----3-|-------------------3----|-------3-----2--------2-|
    
G|----0--------------0----|----0--------------0----|----2-------------------|----2-----------2-------|
    
D|------------------------|------------------------|-0----------------------|-------------------2----|
    
A|-2----------------------|------------------------|------------------------|-0----------------------|
    
E|------------------------|-3----------------------|------------------------|------------------------|
*2nd Guitar
e|--------------------------------------------------------------------------------------------------------|
B|-------------------------------------------------3/5-3-------------------------------------------3/5-3--|
G|--------------6-7---------6-7---------6-7---------------------6-7---------6-7---------6-7---------------|
D|--7/9-7-------------------------------------------------------------------------------------------------|
A|--------------------------------------------------------------------------------------------------------|
E|--------------------------------------------------------------------------------------------------------|
                          A   passion of life          the courage to  
be strong
 

e|----------2-------------|----------2-------------|----------3-------------|-0-------|
B|-------3--------3-----3-|-------3--------3-----3-|-------3--------3-------|-2-------|
G|----0--------------0----|----0--------------0----|----0--------------0----|-2-------|
D|------------------------|------------------------|------------------------|---------|
A|------------------------|-2----------------------|------------------------|-0-------|
E|-2----------------------|------------------------|-3----------------------|---------|
*2nd Guitar
e|------------------------------------------------------------------------------------|
B|------------------------------------------3/5-3-----------------------------3/5-----|
G|------6-7---------6-7---------6-7---------------------------6-7---------------------|
D|------------------------------------------------------------------------------------|
A|------------------------------------------------------------------------------------|
E|------------------------------------------------------------------------------------|
                   the  will to   suc-----ceed                     and 
a  sense   I belong




e|------------|------------|------------|------------|-------------0--------0-|-------0----|------------|------------------------------------------|
B|-------3----|-------3----|-------3----|----------3-|-------0--------0-------|----------1-|-------1----|-------2-----2--3-----2--------2-----2--3-|
G|----2-----2-|----2-----2-|----------2-|------------|----0-----0--------0----|----0-------|----0-----0-|----2-----2-----------------2-----2-------|
D|-0----------|------------|----0-------|----0-------|------------------------|------------|------------|------------------------------------------|
A|------------|------------|------------|------------|------------------------|-3----------|-2----------|-0-----------------0-----0----------------|
E|------------|-2----------|-3----------|-3-----2----|-0----------------------|------------|------------|------------------------------------------|
*2nd Guitar
e|-----------------------------------------------------------------------------------------|
B|-------------5/7--8--7--5------------------------------------5/7--8--7--5----------------|
G|---------------------------7-----------------------------------------------7-------------|
D|-----------------------------------------------------------------------------------------|
A|-----------------------------------------------------------------------------------------|
E|-----------------------------------------------------------------------------------------|


Chorus:
       
e|------------|------------|------------|------------|----------0----------|------------------------|
       
B|-------3----|-------3----|-------3----|----------3-|-------0--------0--0-|-------3-----2-----2--3-|
       
G|----2-----2-|----2-----2-|----------2-|------------|----0----------------|----2-----2-----2-------|
       
D|-0----------|------------|----0-------|----0-------|---------------------|------------------------|
       
A|------------|------------|------------|------------|---------------------|-0----------------------|
       
E|------------|-2----------|-3----------|-3-----2----|-0-------------------|------------------------|
*2nd Guitar
e|-------|
B|-3/5-3-|
G|-------|
D|-------|
A|-------|
E|-------|
  I'll love you   for---ever    forever  and   more     For all that
you give me  It's you I adore


       e|------------|------------|-0----------|-2----------|
       B|-------3----|-------3----|-3----------|-3----------|
       G|----2-----2-|----2-------|-2----------|-4----------|
       D|-0----------|------------|-0----------|-4----------|
       A|------------|------------|-0----------|-2----------|
       E|------------|-2----------|-3----------|------------|
 I'll love you   for---ever    forever  and   more


   e|----------3-------------|-0----------|
   B|-------3--------3-------|-2----------|
   G|----0--------------0----|-2----------|
   D|------------------------|------------|
   A|------------------------|-0----------|
   E|-3----------------------|------------|
 forever  and  ever


e|------------|------------|------------|------------|----------0----------|------------------------|

B|-------3----|-------3----|-------3----|----------3-|-------0--------0--0-|-------3-----2-----2--3-|
   
G|----2-----2-|----2-----2-|----------2-|------------|----0----------------|----2-----2-----2-------|
    
D|-0----------|------------|----0-------|----0-------|---------------------|------------------------|
      
A|------------|------------|------------|------------|---------------------|-0----------------------|
     
E|------------|-2----------|-3----------|-3-----2----|-0-------------------|------------------------|
       *2nd Guitar
      
e|-------------------------------------------------5/7----------------------------------------------|
      
B|--------------------------------------------------------------------5/7-5-5-----------5/7---------|
      
G|--------------------------------------------------------------------------------------------------|
      
D|--------------------------------------------------------------------------------------------------|
      
A|--------------------------------------------------------------------------------------------------|
      
E|--------------------------------------------------------------------------------------------------|
 I'll love you   for---ever    forever  and   more     For all that you
give me  It's you I adore


       e|------------|------------|-0----------|-2----------|
       B|-------3----|-------3----|-3----------|-3----------|
       G|----2-----2-|----2-------|-2----------|-4----------|
       D|-0----------|------------|-0----------|-4----------|
       A|------------|------------|-0----------|-2----------|
       E|------------|-2----------|-3----------|------------|
       *2nd Guitar
       e|----0-----------0-----------0--------0-------------|
       B|-------3--------------3--------3/5-----------------|
       G|-6--------6--------6-------------------------------|
       D|---------------------------------------------------|
       A|---------------------------------------------------|
       E|---------------------------------------------------|
 I'll love you   for---ever    forever  and   more


   e|----------3-------------|-0----------|
   B|-------3--------3-------|-2----------|
   G|----0--------------0----|-2----------|
   D|------------------------|-2----------|
   A|------------------------|-0----------|
   E|-3----------------------|------------|
 forever  and  ever                   forever and more


e|-------0-----------0-----------0-----0--------0----------0-----------0-----------0--------------0--------0-----------0-----------0---------------0----------0--------0----------|
B|----------3--------------3--------3-----------------3/5--------3--------3--------------------3-----------------3--------3--------------3------------3--3/5--------------3-------|
G|-6-----------6--------6--------------------6-----6----------6--------------6--------6-----6--------6--------6--------------6--------6---------6----------------6--------------6-|
D|--------------------------------------------------------------------------------------------------------------------------------------------------------------------------------|
A|--------------------------------------------------------------------------------------------------------------------------------------------------------------------------------|
E|--------------------------------------------------------------------------------------------------------------------------------------------------------------------------------|
*2nd Guitar
e|--------------------------------------------------------------------------------------------------------------------------------------------------------------------------------|
B|-------------8-----------8-----------8-------------------------------------------------------------------------8-----------8-----------8----------------------------------------|
G|--------------------------------------------------------------------------------------------------------------------------------------------------------------------------------|
D|--------------------------------------------------------------------------------------------------------------------------------------------------------------------------------|
A|--------------------------------------------------------------------------------------------------------------------------------------------------------------------------------|
E|--------------------------------------------------------------------------------------------------------------------------------------------------------------------------------|
                                            forever and ever           
                 forever and more                                      
 mmm.....


Текст, аккорды и табулатура для песни "Lara", исполняет "Moffatts".
Используемые в песне аккорды можно найти в разделе Как брать аккорды. Аккорды для шестиструнной гитары. Другие песни можно найти на нашем сайте, воспользовавшись алфавитным указателем вверху страницы.


 
Ошибка в тексте? Выделите ошибку и нажмите Ctrl+Enter