>
-----------------------------------------------------------------------------
TITLE:FLOAT ON
ARTIST: MODEST MOUSE
TYPE OF TAB:BASS TAB
TABS BY: JOE
-----------------------------------------------------------------------------
<


INTRO
G------------------------------------------
D----------8---------8---------------------
A-9-9-9-9----8-8-8-8-----------6---------6-
E----------------------7-7-7-7---6-6-6-6--- X1


VERSE

G------------------------------------------
D----------8---------8---------------------
A-9-9-9-9----8-8-8-8-----------6---------6-
E----------------------7-7-7-7---6-6-6-6--- X2


PRECHORUS

G------------------------------------------
D----------8---------8---------------------
A-9-9-9-9----8-8-8-8-----------6---------6-
E----------------------7-7-7-7---6-6-6-6--- X1


CHORUS

G-----------------------------
D------8------8---------------
A-9~-9---8~-8--------6------6-
E---------------7~-7---6~-6--- X2


VERSE

G------------------------------------------
D----------8---------8---------------------
A-9-9-9-9----8-8-8-8-----------6---------6-
E----------------------7-7-7-7---6-6-6-6--- X3


PRECHORUS

G------------------------------------------
D----------8---------8---------------------
A-9-9-9-9----8-8-8-8-----------6---------6-
E----------------------7-7-7-7---6-6-6-6--- X1

CHORUS

G-----------------------------
D------8------8---------------
A-9~-9---8~-8--------6------6-
E---------------7~-7---6~-6--- X2


INTERLUDE

G------------------------------------------
D----------8---------8---------------------
A-9-9-9-9----8-8-8-8-----------6---------6-
E----------------------7-7-7-7---6-6-6-6--- X2

OUTRO

G------------------------------------------
D----------8---------8---------------------
A-9-9-9-9----8-8-8-8-----------6---------6-
E----------------------7-7-7-7---6-6-6-6--- X4

G---------------------------------------------
D----------8---------8------------------------
A-9-9-9-9----8-8-8-8-----------6---------6----
E----------------------7-7-7-7---6-6-6-6---5~- X1

WELL THATS IT... ITS KINDA EASY.. BUT ITS AWESOME

FOR COMMENTS AND STUFF I.M. ME AT :JOEBOB859 OR SHRODER859


Текст, аккорды и табулатура для песни "Float On", исполняет "Modest Mouse".
Используемые в песне аккорды можно найти в разделе Как брать аккорды. Аккорды для шестиструнной гитары. Другие песни можно найти на нашем сайте, воспользовавшись алфавитным указателем вверху страницы.


 
Ошибка в тексте? Выделите ошибку и нажмите Ctrl+Enter