-------------------------------------------------------------------------------
			     SONG NAME - Band Name
-------------------------------------------------------------------------------

Tabbed By : Heffy
e-mail: [email protected]

Tuning: Standard


G|---------------------------------------------------------------------------|
D|---------------------------------------------------------------------------|
A|---------------------------------------------------------------------------|
E|---22---33---55---55---22---33---55---55-----------------------------------|

G|---------------------------------------------------------------------------|
D|---------------------------------------------------------------------------|
A|------2h4----2h4----2h4---------------2h4----2h4----2h4----5h7-------------|
E|---22-----33-----55-----55--5h7---22-----33-----55-----55------------------|

G|---------------------------------------------------------------------------|
D|----------------------------------------------------2h4-2------------------|
A|------2h4----2h4----2h4--------------2h4----2h4-------------4--2-----------|
E|---22-----33-----55-----55--5h7---22-----33-----55------------------0------|

G|---------------------------------------------------------------------------|
D|------------------------------------22--------22---------------------------|
A|---5---4---4h5--00---0h2--44---0h2-------2h4-------------------------------|
E|---------------------------------------------------------------------------|

not an any particular order, just the riffs... find the order yourselfs...
email any requests for tabs or AIM-IronChefHeffy


Текст, аккорды и табулатура для песни "Bury Me With It", исполняет "Modest Mouse".
Используемые в песне аккорды можно найти в разделе Как брать аккорды. Аккорды для шестиструнной гитары. Другие песни можно найти на нашем сайте, воспользовавшись алфавитным указателем вверху страницы.


 
Ошибка в тексте? Выделите ошибку и нажмите Ctrl+Enter