Am         Am         Em         Em
                1)-0----------0----------0----------0---------
                2)-1-------1--1-------1--0-------0--0-------0-
                3)-2-2---2----2-----2----0-----0----0-----0---
                4)-2---2------2----------2----------2---2-----
                5)-0----------0----------2----------2---------
                6)-----------------------0----------0---------
                   Why does my heart     Feel so bad

                   G          G          D          D
                1)-3----------3----------2----------2---------
                2)-0-------0--0-------0--3----------3---------
                3)-0-----0----0-0---0----2----------2---------
                4)-0----------0---0------0----------0---------
                5)-2----------2-------------------------------
                6)-3----------3-------------------------------
                   Why does my soul      Feel so bad



Текст, аккорды и табулатура для песни "Why Does My Heart Feel So Bad", исполняет "Moby".
Используемые в песне аккорды можно найти в разделе Как брать аккорды. Аккорды для шестиструнной гитары. Другие песни можно найти на нашем сайте, воспользовавшись алфавитным указателем вверху страницы.


 
Ошибка в тексте? Выделите ошибку и нажмите Ctrl+Enter