We Are All Made of Stars - Moby
Album: 18

Ok here's the tab for this ace song. I think it's right - I have played along to 
it and it sounds fine.

Obviously you've gotta put on a lot of distortion on the chorus, and slightly less
for the verses.

(There are a lot of slides, but with the amount of gain, it will be fine)

Intro

e|---------------------------------------------------------------------------|
B|---------------------------------------------------------------------------|
G|---------------------------------------------------------------------------|
D|------0h2-----0h2-----0h2-----0h2------------------------------------------|
A|----2-------2-------2-------2----------------------------------------------|
E|--0-------0-------0-------0------------------------------------------------|

Now the verses are basically the same as the Intro, but they are sometimes a little 
bit varied.  You can also play this
which is sometimes played:

Play this:

				   Growing in numbers...			
e|---------------------------------------------------------------------------|
B|---------------------------------------------------------------------------|
G|---------------------------------------------------------------------------|
D|------0h2-----0h2-----0h2-----0h2-----0h2-----0h2-----0h2-----0h2----------|
A|----2-------2-------2-------2-------2-------2-------2-------2--------------|
E|--0-------0-------0-------0-------0-------0-------0-------0----------------|

Or this:
				    Growing in numbers...
e|---------------------------------------------------------------------------|
B|---------------------------------------------------------------------------|
G|---------------------------------------------------------------------------|
D|------2-------2-------2-------2-------2-------2-------2-------2------------|
A|----2---2---2---2---2---2---2---2---2---2---2---2---2---2---2---2----------|
E|--0-------0-------0-------0-------0-------0-------0-------0----------------|

As I said they both sound good, the top one is what is actually played, but the bottom 
one is also good.


Chorus

Here is what is usually played in the chorus, there are some slight variations which 
are shown below.  As I said, there
should be lots of gain and distrotion on this.


This is the basic tune in the chorus:

   People they come together...	                People they fall apart...
e|-------------------------------------------------------------------------------------|
B|---------------------------8h7p8--10-7--------8h7p8------10-7--------12h3-3-0--------|
G|-------------------------------------------------------------------------------------|
D|-------------------------------------------------------------------------------------|
A|-------------------------------------------------------------------------------------|
E|-------------------------------------------------------------------------------------|


   But no one can stop us now...	    'Cause we are all made of stars...
e|-------------------------------------------------------------------------------------|
B|----------------------------8h7p8--10-7-----------8h7p8---10-7------------12p3-3-5-3-|
G|-------------------------------------------------------------------------------------|
D|-------------------------------------------------------------------------------------|
A|-------------------------------------------------------------------------------------|
E|-------------------------------------------------------------------------------------|

Variations sometimes used:

(Sorry, I can't say where exactly these come in the song, just listen out for them)

e|-------------------------------------------------------------------------------------|
B|--------8h7p8--10-7----8h7p8---10-7----8h7p8---10-7----12/15p3-----------------------|
G|-------------------------------------------------------------------------------------|
D|-------------------------------------------------------------------------------------|
A|-------------------------------------------------------------------------------------|
E|-------------------------------------------------------------------------------------|

e|-------------------------------------------------------------------------------------|
B|--------8h7h8--10-7----8h7h8---10-7----8h7h8---10-7----12h2-2-0----------------------|
G|-------------------------------------------------------------------------------------|
D|-------------------------------------------------------------------------------------|
A|-------------------------------------------------------------------------------------|
E|-------------------------------------------------------------------------------------|

Also near the end it goes:
e|-------------------------------------------------------------------------------------|
B|--------8h7p8h78p7h8h78p7h8p78h7h8p78p7h8p78p7h8p7-----12p2-3-0----------------------|
G|-------------------------------------------------------------------------------------|
D|-------------------------------------------------------------------------------------|
A|-------------------------------------------------------------------------------------|
E|-------------------------------------------------------------------------------------|

That's about it, hope you enjoy playing this.


Текст, аккорды и табулатура для песни "We Are All Made Of Stars", исполняет "Moby".
Используемые в песне аккорды можно найти в разделе Как брать аккорды. Аккорды для шестиструнной гитары. Другие песни можно найти на нашем сайте, воспользовавшись алфавитным указателем вверху страницы.


 
Ошибка в тексте? Выделите ошибку и нажмите Ctrl+Enter