[INTRO]


Em
-------------------------------------|
-------------------------------------|
----0--------------------0-----------|
|------2-----------2--------2-----------2--------|
|---------2-----------2--------2-----------2-----|
|-0----------0-----------0--------0-----------0--|

Em
-------------------------------------|
-------------------------------------|
|-0-------------0-----------0-----------0--------|
|------2-----------2-----------2-----------2-----|
|---------2-----------2-----------2-----------2--|
-0-----------0-----------0-----------|

C
-------------------------------------|
|------1--------------------1--------------------|
|---------0--------0-----------0--------0--------|
-0--------0-----------0--------0-----|
|-3-------------3--------3-----------3--------0--|
-------------------------------------|

G
-------------------------------------|
----0-----------0--3-----------0-----|
-------0--------------0--------------|
|------0--------------0--------------0-----------|
|---------2--------------------------------------|
|-3----------3-----------3--------------3-----3--|



Em
------------------------------------|
------------------------------------|
----0-------------0-----------------|
|------2-----------2-------------2--------2-----|
|---------2-----------2-------------2--------2--|
|-0----------0-----------0-------------0--------|

Em
--------------------------------------|
--------------------------------------|
|----0-----------0-----------0--------------------|
|-------2-----------2-----------2--------2--------|
|----------2-----------2-----------2--------2-----|
|-0-----------0-----------0-----------0--------0--|

C
--------------------------------------|
-----1-----------1--------------------|
|-------0-----------0-----------0--------0--------|
|----------0-----------0-----------0--------0-----|
|-3-----------3-----------3-----------3--------0--|
--------------------------------------|

G
-------------------------------------|
----0--------------------0-----------|
-------0-----------------------0-----|
|------0--------------0-----0--------------------|
|---------2--------------------2--------------0--|
|-3----------3-----------3--------3-----3--------|



Am
-------------------------------------|
----1--------------------1-----------|
|------2-----------2--------2-----------2--------|
|---------2-----------2--------2-----------2-----|
|-0----------0-----------0--------0-----------0--|
-------------------------------------|

Em
----------------------------------|
----------------------------------|
----0--------------------0--------|
|------2-----------2--------2-----------2-----|
|---------2-----------2--------2-----------2--|
|-0----------0-----------0--------0-----------|

Em
-----------------------------------------|
-----------------------------------------|
--0--------------------0-----------------|
|----2-----------2--------2-----------2--------2-----|
|-------2-----------2--------2-----------2--------2--|
|-0--------0-----------0--------0-----------0--------|


2x
D
----2--------------------2-----------|
|------3-----------3--------3-----------3--------|
|---------2-----------2--------2-----------2-----|
|-0----------0-----------0--------0-----------0--|
-------------------------------------|
-------------------------------------|

Am
-------------------------------------|
----1--------------------1-----------|
|------2-----------2--------2-----------2--------|
|---------2-----------2--------2-----------2-----|
|-0----------0-----------0--------0-----------0--|
-------------------------------------|

Em
------------------------------------|
------------------------------------|
----0----------------------0--------|
|------2-----------2----------2-----------2-----|
|---------2-----------2----------2-----------2--|
|-0----------0-----------0----------0-----------|

Em
------------------------------------|
------------------------------------|
----0-------------------0-----------|
|-------2----------2--------2----------2--------|
|----------2----------2--------2----------2-----|
|-0-----------0----------0--------0----------0--|



F
----------------------------------|
----------------------------------|
----1--------------------1--------|
|------3-----------3--------3-----------3-----|
|---------3-----------3--------3-----------3--|
|-1----------1-----------1--------1-----------|

F
-----------------------------------------|
-----------------------------------------|
--1--------------------1-----------------|
|----3-----------3--------3-----------3--------3-----|
|-------3-----------3--------3-----------3--------3--|
|-1--------1-----------1--------1-----------1--------|


[CORE]

   [Em] [C] [G]
   [Em] [C] [G] [Am] [Em]
2x [D] [Am] [Em]
2x [F] [Em]
4x [D] [Am] [Em]


[OUTRO]

Em
--------------------------|
|-3-----------0-----------------------|
|----0-----------0--------0-----------|
|-------2-----------2--------2--------|
|----------2-----------2--------2-----|
-----------------------0--|

Em
--------------------------------------|
--------------------------------------|
--0--------------------0--------------|
|----2-----------2--------2-----------2-----2-----|
|-------2-----------2--------2-----------------2--|
|-0--------0-----------0--------0--------0--------|

Em
--------0----------------|
-------------------0-----|
|-----0------------------------------|
|--------2--------2---2-----2-----2--|
2------------------------|
|--0-----------0---------0-----------|

Em
-----------------------------------------|
-----------------0-----------0-----------|
-----0-----------------------------------|
|-------2-----------2-----------2-----------2--------|
|----2--------2--------2-----------2-----------2-----|
|-0--------0--------------0-----------0-----------0--|

Em
|--0-----------0--------0--------0-----------------|
|-----0-----------0-----------------0--------0-----|
|--------0--------------------------------------0--|
2-----------------2-----------2--------|
---------2-----------------------------|
---------------0-----------0-----------|


Enjoy!


Текст, аккорды и табулатура для песни "Everloving", исполняет "Moby".
Используемые в песне аккорды можно найти в разделе Как брать аккорды. Аккорды для шестиструнной гитары. Другие песни можно найти на нашем сайте, воспользовавшись алфавитным указателем вверху страницы.


 
Ошибка в тексте? Выделите ошибку и нажмите Ctrl+Enter