Вступление: Am | Dm | G | E | E7    > 2 раза
   Am                Dm      G                 E     E7
e|--12-5--5-7-8-10-|-12-10-|-10-3--12-10-8-7-|-12-7-----
H|-----------------|-------|-----------------|---0------
G|-----------------|-------|---0-------------|----------
D|-----------------|---0---|-----------------|----------
A|----0------------|-------|-----------------|----------
E|-----------------|-------|-----------------|----------


Am 
Я словно мертвый, оторван от земли, 
Dm 
Поднятый к небу, отсюда вижу сны. 
G
Ты просто представляешь одни красивые сны, 
C                         E		     E7
А жизнь представить - это просто невозможные мечты. 

Она трудна и очень сложна, но разве так можно? 
Не зная, что с тобою будет дальше впереди, 
Заходить в тупики и унижаться, 
И как же просто дальше жить и чтоб не огорчаться? 

Нет, нет, так не может долго продолжаться. 
Мне нужно думать дальше, с собою разобраться, 
Добиться цели, быть уверенным в себе, 
Идти к вершине желаний и навстречу судьбе. 

Да я знаю, что это будет нелегко, 
С моей мечтою разбитой будет очень тяжело. 
Я буду мимо проходить и, разбивая все преграды, 
За спиною моей не хочу, чтоб были раны. 

	Am                     Dm
	Взгляни на небо, посмотри, как плывут облака. 
	G                     E         E7        Am
	И солнца свет нам с тобой не поймать никогда. 
	Наш мир убогий, и в нем нет ни капли души, 
	Везде пороги, ну а ты не сдавайся - дыши.

Проигрыш = вступление

Да я слышу, как сердце мое бьется, 
Я еще дышу, но что еще мне остается? 
Пока я еще живу, и время не стоит на месте, 
Если есть у меня чувства, то не может быть и мести. 

Только дождь за окном успокоит мою душу, 
Не хочу я сейчас, чтобы кто-то меня слушал, 
Чтобы видели меня у разбитого стекла, 
Но жизнь прекрасна и прекрасны облака. 

	Припев

Проигрыш = вступление

	Bm                     Ebm
	Взгляни на небо, посмотри, как плывут облака. 
	Ab                    F          F7       Bm
	И солнца свет нам с тобой не поймать никогда. 
	Наш мир убогий, и в нем нет ни капли души, 
	Везде пороги, ну а ты не сдавайся – дыши, дыши.
	
	Hm                     Em    
	Взгляни на небо, посмотри, как плывут облака. 
	A                     F#        F#7       Hm
	И солнца свет нам с тобой не поймать никогда. 
	Наш мир убогий, и в нем нет ни капли души, 
	Везде пороги, ну а ты не сдавайся – дыши. 

Кода: Hm | Em | A | F# | F#7
   Hm                 Em      A                  F#       
e|--14-7--7-9-10-12-|-14-12-|-12-5--14-12-10-9-|-14-0-9-|
H|----0-------------|-------|------------------|--------|
G|------------------|-------|------------------|--------|
D|------------------|-------|------------------|--------|
A|------------------|-------|---0--------------|--------|
E|------------------|---0---|------------------|--------|
	
	
	        
Комментарий автора: Можно играть боем и использовать перебор, например: 5-4-3-1-2-3-1-2.

Текст, аккорды и табулатура для песни "Дыши", исполняет "Многоточие".
Используемые в песне аккорды можно найти в разделе Как брать аккорды. Аккорды для шестиструнной гитары. Другие песни можно найти на нашем сайте, воспользовавшись алфавитным указателем вверху страницы.


 
Ошибка в тексте? Выделите ошибку и нажмите Ctrl+Enter