Intro:
 e------------------------------------------------------------
 b------------------------------------------------------------
 G------------------------------------------------------------
 D---------------/8-------7-5--3-232------------/8-------5----
 A----/5--454-45-----5-4-------------/5--454-45-----5-4----5--
 E------------------------------------------------------------

   Dm
  Снова гость к моей соседке,
   Gm
  Дочка спит, торшер горит.
   A7           Dm   A7
  Радость на лице.
   Dm
  По стеклу скребутся ветки,
     Gm
  в рюмочки коньяк налит-
   A7         Dm  D7
  Со свиданьицем.
    Gm   A7
  вроде бы откуда
   Dm B
  Новая посуда?-
   Gm   A7         Dm         D7
  Но соседка зтим гостем дорожит:
  Gm     A7
  То поправит скатерть,
   Dm      B
  То вздохнет некстати,
   Gm    A7            A7       Dm
  То смутится, что не острые ножи.

 Он -- мужчина разведенный,
 И она -- разведена.
 Что тут говорить...
 Правит нами век казенный,
 И не их зто вина --Некого винить.
 Тот был -- первый -- гордым,
 Правильным был, твердым,--
 Ну да бог ему судья, да был бы жив.
 Сквер листву меняет,
 Дочка подрастает...
 И пустяк, что не наточены ножи.

 Пахнет наволочка снегом,
 Где-то капает вода,
 Плащ в углу висит.
 На проспект спустились небо
 И зеленая звезда
 Позднего такси.
 Далеко до Сходни,
 Не уйти сегодня,--
 Он бы мог совсем остаться да и жить.
 все не так досадно,
 Может, жили б складно...
 Ах, дались мне зти чертовы ножи!

 H7

   Em
 Ах, как спится утром зимним!
   Am
 На ветру фонарь скулит --
   H7         Em   H7
 Желтая дыра.
   Em
 Фонарю приснились ливни --
     Am
 вот теперь он и не спит,
   H7         Em  	E7
 все скрипит: пора, пора...
    Am   H7
 Свет сольется в щелку,
   Em   C
 Дверь тихонько щелкнет,
   Am   H7         Em         E7
 лифт послушно отсчитает зтажи...
  Am     H7
 Снег под утро ляжет,
   Em      C
 И неплохо даже
   Am    H7           H7       Em
 То, что в доме не наточены ножи.

 Outro:
 e------------------------------------------------------------
 b------------------------------------------------------------
 G------------------------------------------------------------
 D---------------/10-------9-7--5-454------------/10-----7----
 A----/7--676-67-----7-6-------------/7--676-67-----7-6----7--
 E------------------------------------------------------------


Текст, аккорды и табулатура для песни "Соседка", исполняет "Митяев Олег".
Используемые в песне аккорды можно найти в разделе Как брать аккорды. Аккорды для шестиструнной гитары. Другие песни можно найти на нашем сайте, воспользовавшись алфавитным указателем вверху страницы.


 
Ошибка в тексте? Выделите ошибку и нажмите Ctrl+Enter