Band: Misfits
Song: X Games Theme

Tabber: John Cukras
Email: [email protected]

Tuning: Normal

Riff 1:
E-------------------------
B-------------------------
G-------------------------
D-2222--------2222--------
A-2222-3-5----2222-3-5-2-3
E-0000-1-3----0000-1-3-0-1 x's 2

Riff 2:
E---------------------------
B---------------------------
G---------------------------
D-22-77--77-55--55--------77
A-22-55--55-33--33-77--77-55
E-00---------------55--55---

Riff 3:
E---------------------------------------------------------
B---------------------------------------------------------
G---------------------------------------------------------
D-22-7-7777777-7-5-555555-5---77777777-77-7-77-7-77-7-77-7
A-22-5-5555555-5-3-333333-3-7-55555555-55-5-55-5-55-5-55-5
E-00------------------------5-----------------------------
pm     .......     ......              ..   ..   ..   ..

Riff 2 x's 2

Riff 2 (minus GD, last 3 chords)

End:
E---------
B---------
G---------
D-2222----
A-2222-3-5
E-0000-1-3


Текст, аккорды и табулатура для песни "X Games Theme", исполняет "Misfits".
Используемые в песне аккорды можно найти в разделе Как брать аккорды. Аккорды для шестиструнной гитары. Другие песни можно найти на нашем сайте, воспользовавшись алфавитным указателем вверху страницы.


 
Ошибка в тексте? Выделите ошибку и нажмите Ctrl+Enter