-------------------------------------------------------------------------------
                               WITCH HUNT - Misfits
-------------------------------------------------------------------------------


Tune down 1/2 step:

|-------------------------------------|
|-------------play-2-times------------|
|-7-7-7-7-8-8-8-8---------10-10-10-10-|
|-7-7-7-7-8-8-8-8-8-8-8-8-10-10-10-10-|
|-5-5-5-5-6-6-6-6-8-8-8-8--8--8--8--8-|
|-----------------6-6-6-6-------------|

|-------------------------------------|------------------------|
|-------------play-4-times------------|------------------------|
|-7-7-7-7-8-8-8-8---------10-10-10-10-|-8-------------8--------|
|-7-7-7-7-8-8-8-8-8-8-8-8-10-10-10-10-|-8------8------8------3-|
|-5-5-5-5-6-6-6-6-8-8-8-8--8--8--8--8-|-6------8------6------3-|
|-----------------6-6-6-6-------------|--------6-------------1-|
  PM---------------------------------

|-------------------------------------|
|-------------play-2-times------------|
|-7-7-7-7-8-8-8-8---------10-10-10-10-|
|-7-7-7-7-8-8-8-8-8-8-8-8-10-10-10-10-|
|-5-5-5-5-6-6-6-6-8-8-8-8--8--8--8--8-|
|-----------------6-6-6-6-------------|

|-------------------------------------|------------------------|
|-------------play-4-times------------|------------------------|
|-7-7-7-7-8-8-8-8---------10-10-10-10-|-8-------------8--------|
|-7-7-7-7-8-8-8-8-8-8-8-8-10-10-10-10-|-8------8------8------3-|
|-5-5-5-5-6-6-6-6-8-8-8-8--8--8--8--8-|-6------8------6------3-|
|-----------------6-6-6-6-------------|--------6-------------1-|
  PM---------------------------------

|-----------------------|-------------------------|
|------play-3-times-----|-------------------------|
|-----------------------|-------------------------|
|-8--8--8--8--8--8-8-7-|-8--8--8----8-8-8-8-8--8-|
|-x--x--x--x--x--x-x-x-|-x--x--x----x-x-x-x-x--x-|
|-6--6--6--6--6--6-6-5-|-6--6--6----6-6-6-6-6--6-|

|---------------w/-solo---------------|------------------------|
|-------------play-4-times------------|------------------------|
|-7-7-7-7-8-8-8-8---------10-10-10-10-|-8-------------8--------|
|-7-7-7-7-8-8-8-8-8-8-8-8-10-10-10-10-|-8------8------8------3-|
|-5-5-5-5-6-6-6-6-8-8-8-8--8--8--8--8-|-6------8------6------3-|
|-----------------6-6-6-6-------------|--------6-------------1-|

|-----------------------------|-----------------------|
|-----------------------------|------play-3-times-----|
|-----------------------------|-----------------------|
|-3-3-3-3-3-3-3-3-3-3-3-3-3-3-|-8--8--8--8--8--8-8-7-|
|-3-3-3-3-3-3-3-3-3-3-3-3-3-3-|-x--x--x--x--x--x-x-x-|
|-1-1-1-1-1-1-1-1-1-1-1-1-1-1-|-6--6--6--6--6--6-6-5-|

|-------------------------|
|-------------------------|
|-------------------------|
|-8--8--8----8-8-8-8-8--8-|
|-x--x--x----x-x-x-x-x--x-|
|-6--6--6----6-6-6-6-6--6-|


Текст, аккорды и табулатура для песни "Witch Hunt", исполняет "Misfits".
Используемые в песне аккорды можно найти в разделе Как брать аккорды. Аккорды для шестиструнной гитары. Другие песни можно найти на нашем сайте, воспользовавшись алфавитным указателем вверху страницы.


Слушать онлайн Witch Hunt


MisfitsWitch Hunt на Яндекс.Музыке


 
Ошибка в тексте? Выделите ошибку и нажмите Ctrl+Enter