Band: Misfits
song: throw rag

tabber: John Cukras
email: [email protected]

tuning: normal

riff 1:  Part A                       Part B
E---------------------------------|----------------------|
B---------------------------------|----------------------|
G----------------------222--------|----------------------|
D----------------------222--------|--55555-44444-(33333--|
A---3-2-55-3-2-44------000--------|--33333-22222-(11111--|
E-1---------------3-0-----  x's 3-|----------------------|

Riff 1: Part A x's 6 , Part B

Riff 1: Part A x's 1 , Part B

Riff 1: Part A x's 1

Riff 2:
E--------------------------------------|
B--------------------------------------|
G--------------------------------------|
D-9-10-11-9-10-11-9-8-7-7-9^^^-9-8-7-7-|
A--------------------------------------|
E--------------------------------------|

Riff 1: Part A x's 4 , Part B

Riff 1: Part A x's 1 , Part B

Riff 1: Part A x's 1

Riff 2

Riff 3:
E---------------------------------------|
B---------------------------------------|
G-------------------------------------2-|
D------777----------------------------2-|
A-7777-555--------6666-9999-----------0-|
E-5555---- x's 3---------------2-33-0---|

Riff 1: Part B

Riff 1: Part A x's 1 , Part B

Riff 1: Part A x's 1

Riff 2

Riff 1: Part A x's 4 (played under solo)

Riff 3

Riff 1: Part B

Riff 1: Part A x's 1 , Part B

Riff 1: Part A x's 1 , Part B

Solo: Speed Pick = *
E--------------------------------------------------------------------------------------|
B--------------------------------------------------------------------------------------|
G----------------------------------------------------------------------11-10-9-8-9-7-5-|
D-21h22-21h22-21h22-21h22-21-20--21h22-21h22-21h22-21h22-21-20--21/9-9-----------------|
A--------------------------------------------------------------------------------------|
E--------------------------------------------------------------------------------------|

E----------------------------------------|
B----------------------------------------|
G----------------------------------------|
D-9*-10*-11*-12*-11*-14*-15*-14*-17*-21--|
A----------------------------------------|
E----------------------------------------|


Текст, аккорды и табулатура для песни "Throw Rag", исполняет "Misfits".
Используемые в песне аккорды можно найти в разделе Как брать аккорды. Аккорды для шестиструнной гитары. Другие песни можно найти на нашем сайте, воспользовавшись алфавитным указателем вверху страницы.


 
Ошибка в тексте? Выделите ошибку и нажмите Ctrl+Enter