Band: Misfits
Song: Spinal Remains

Tabber: John Cukras
Email: [email protected]

Tuning: Normal

Riff 1
E-----------------------------------------------------------------
B-----------------------------------------------------------------
G-2---------------------------------------------------------------
D-2---------------------------------------------------------------
A-0---3/55555-3/5555---5/77777-5/77777--33333333--3/55555-3/55555-
E-----1/33333-1/3333---3/55555-3/55555--11111111--1/33333-1/33333-

Riff 2:
E--------------------------------------------
B--------------------------------------------
G--------------------------------------------
D--------------------------------------------
A-5555555--8-5-3-5-8-5-3-5-8-5-3-5-8-5-3-5-5-
E-3333333--6-3-1-3-6-3-1-3-6-3-1-3-6-3-1-3-3-

Riff 1

Riff 2


Текст, аккорды и табулатура для песни "Spinal Remains", исполняет "Misfits".
Используемые в песне аккорды можно найти в разделе Как брать аккорды. Аккорды для шестиструнной гитары. Другие песни можно найти на нашем сайте, воспользовавшись алфавитным указателем вверху страницы.


Слушать онлайн Spinal Remains ()


MisfitsSpinal Remains () на Яндекс.Музыке


 
Ошибка в тексте? Выделите ошибку и нажмите Ctrl+Enter