tabbed by Jon Park


1st guitar
e|-----------------------------------------------------------|
b|-----------------------------------------------------------|
g|-----------------------------------------------------------|  REPEAT FOUR TIMES
d|------------------------9-9-9-9----11-11-11-11---7-7-7-7---|
a|------------7-7-7-7-----7-7-7-7----9-9-9-9-------5-5-5-5---|
e|------------5-5-5-5----------------------------------------|


1st gutar
e|--------------------------------------------------
b|--------------------------------------------------
g|----------6-6-6-6-6-6-6-6-------------------------     4x     2nd guitar plays with first      
d|----------4-4-4-4-4-4-4-4---7-7-7-7-7-7-7-7-------
a|----------------------------5-5-5-5-5-5-5-5-------
e|--------------------------------------------------

1st guitar
e|-------------------------
b|-------------------------
g|-------------------------            right after riff above          
d|----------7-7-7--9-9-9-           
a|----------5-5-5--7-7-7-
e|-----------------------


2nd guitar
e|--------------------------
b|--------------------------
g|--------------------------  4x  the D (x--5-7--)  goes with the first 8 strums from the first guiat and the E 
d|----------7----------9----         (x--7-9--) gouns with the next 8 stums the 1st guitar plays
a|----------5----------7----
e|--------------------------




1st guitar
e|-----------------------------------------------------------------|
b|-----------------------------------------------------------------|
g|-----------------------------------------------------------------|  2x
d|----------------------9-9-9-9--------11-11-11-11------7-7-7-7---|
a|------------7-7-7-7---7-7-7-7---------9--9--9--9-------5-5-5-5---|
e|------------5-5-5-5----------------------------------------------|


1st gutar
e|--------------------------------------------------
b|--------------------------------------------------
g|----------6-6-6-6-6-6-6-6-------------------------     4x                                                 
d|----------4-4-4-4-4-4-4-4---7-7-7-7-7-7-7-7-------
a|----------------------------5-5-5-5-5-5-5-5-------
e|--------------------------------------------------



2nd guitar
e|---------------------------
b|---------------------------
g|---------------------------   4x  the D (x--5-7--)  goes with the first 8 strums from the first guitar and the E 
d|----------7----------9-----       (x--7-9--) goes with the next 8 stums the 1st guitar plays
a|----------5----------7-----
e|---------------------------





1st guitar
e|-------------------------------             e|---------------------------------
b|-------------------------------             b|---------------------------------
g|----------6-6-6-6-6-6----------   8x        g|---------------------------------
d|----------4-4-4-4-4-4--7--9----             d|---6-6-6-6-6-6-6-6-6-6-6-6-------
a|-----------------------5--7----             a|---4-4-4-4-4-4-4-4-4-4-4-4-------
e|-------------------------------             e|--------------------------------



e|----------------------------------------------------------------------------------------------
b|----------------------------------------------------------------------------------------------
g|----------6-6-6-6-6-6-6-6-----------------------6-6-6-6-6-6-6-6-------------------------------   8x
d|----------4-4-4-4-4-4-4-4--7-7-7-7-7-7-7-7------4-4-4-4-4-4-4-4--7-7-7-7-7-7-7-7--7-7-7-9-9-9-
a|---------------------------5-5-5-5-5-5-5-5-----------------------5-5-5-5-5-5-5-5--5-5-5-7-7-7-
e|----------------------------------------------------------------------------------------------



e|-------------------------------
b|-------------------------------
g|-------------------------------
d|----------6-6-6-6-6-6-6-6------
a|----------4-4-4-4-4-4-4-4------
e|-------------------------------

      
This is my first song that i tabbed....please tell me if i had any errors thank you.....
And im not sure if there is a 2nd guitar but it sound like there is...


Текст, аккорды и табулатура для песни "Skulls", исполняет "Misfits".
Используемые в песне аккорды можно найти в разделе Как брать аккорды. Аккорды для шестиструнной гитары. Другие песни можно найти на нашем сайте, воспользовавшись алфавитным указателем вверху страницы.


Слушать онлайн Skulls


MisfitsSkulls на Яндекс.Музыке


 
Ошибка в тексте? Выделите ошибку и нажмите Ctrl+Enter