MISFITS
SHE - Static Age / Legacy Of Brutality (guitar) version
by guillermo luppi
==================
Note:  The D and C notes are played by the bass; a palm-muted guitar 
       doubles the notes.  It also sounds like there is a second guitar 
       playing the A chord continuously through the D and C notes.

  bass bridge:
G|-----------------------------------------------------------------|
D|-------7---5-----------5---3-----------3---1---------------------|
A|-------------7-5-------------5-3-------------3-1---------3-5-3-5-|
E|-5---------------3---------------1---------------3---5-----------|

  bass fill:                          bass end:
G|---------------------------------| |-----------------|
D|-7-7-7-7-7-7-7-7-7-5---5---------| |-7-7-5---7-------|
A|---------------------7---7-6-5-3-| |-------7-0-------|
E|---------------------------------| |-----------------|

 A (D C) G A (2x)
 A  G A      (4x)
 A  G  F  G  (2x) w/bass bridge (2x)
 A                w/bass fill
 A (D C) G A (2x)
 A  G A      (2x)
 G A         (2x)
 A                w/bass end
===========


#

Date: Thu, 6 Nov 1997 16:49:07 -0600
From: Tom Tanto 
To: [email protected]
Subject: TAB:'She' by 'MISFITS'


    Song: She
Album(s): Cough/Cool
          Legacy Of Brutality
          Collection I
          Box Set
          Violent World: A Tribute to the Misfits*
  Artist: the MISFITS (Written by Glenn Danzig)
          *Snapcase

      ~Transcribed by Eric Carroll [email protected] (work e-mail address)~


           »-> Tune Down Ѕ Step or, Standard depending on the recording
                       *Snapcase tunes down to D (I think)

Chords:
       A5                       G5                       F5
  |-|-|-X-X-X              |-|-|-X-X-X              ======X=X=X 


Текст, аккорды и табулатура для песни "She", исполняет "Misfits".
Используемые в песне аккорды можно найти в разделе Как брать аккорды. Аккорды для шестиструнной гитары. Другие песни можно найти на нашем сайте, воспользовавшись алфавитным указателем вверху страницы.


Слушать онлайн She


MisfitsShe на Яндекс.Музыке


 
Ошибка в тексте? Выделите ошибку и нажмите Ctrl+Enter