-------------------------------------------------------------------------------
                               MONSTER MASH - Misfits
-------------------------------------------------------------------------------

By: [email protected]  

---------------------------------  
---------------------------------
------------------6-----8--------
-------6----3-----6-----8--------      play that till chorus
-------6----3-----4-----6--------
-------4----1--------------------

---------------------------------
---------------------------------
-----6-------8-------6-------8--- ------> chorus  then play this shit all
-----4-------6-------4-------6---
-----4-------6-------4-------6---                     over again

and thats it !         



T-H-E  M-I-S-F-I-T-S  

M-O-N-S-T-E-R  M-A-S-H

Standart Riff (a)
|--------------------------------------------------------------------------------------------------------------------------|
|--------------------------------------------------------------------------------------------------------------------------|
|--------------------------------------------------------------6-6-6-6-6-6-6-6-6-6-6-6-6-6-6--8-8-8-8-8-8-8-8-8-8-8-8-8-8-8|
|6-6-6-6-6-6-6-6-6-6-6-6-6-6-6--3-3-3-3-3-3-3-3-3-3-3-3-3-3-3--6-6-6-6-6-6-6-6-6-6-6-6-6-6-6--8-8-8-8-8-8-8-8-8-8-8-8-8-8-8|
|6-6-6-6-6-6-6-6-6-6-6-6-6-6-6--3-3-3-3-3-3-3-3-3-3-3-3-3-3-3--4-4-4-4-4-4-4-4-4-4-4-4-4-4-4--6-6-6-6-6-6-6-6-6-6-6-6-6-6-6|
|4-4-4-4-4-4-4-4-4-4-4-4-4-4-4--1-1-1-1-1-1-1-1-1-1-1-1-1-1-1--------------------------------------------------------------|

Bridge (b)
|---------------------------------------------------------------------------------------------------|
|---------------------------------------------------------------------------------------------------|
|--6-6-6-6-6-6-6-6-6-6-6-6-6-6-6--8-8-8-8-8-8-8-8-8-8-8-8-8-8-8--6-6-6-6-6-6-6-6-6-6-6-6-6-6-6--8---|
|--6-6-6-6-6-6-6-6-6-6-6-6-6-6-6--8-8-8-8-8-8-8-8-8-8-8-8-8-8-8--6-6-6-6-6-6-6-6-6-6-6-6-6-6-6--8---|
|--4-4-4-4-4-4-4-4-4-4-4-4-4-4-4--6-6-6-6-6-6-6-6-6-6-6-6-6-6-6--4-4-4-4-4-4-4-4-4-4-4-4-4-4-4--6---|
|---------------------------------------------------------------------------------------------------|

Song Strukture:

  drum
a intro
a vers
a chorus
a vers
a chorus
b 
a vers
a chorus
a vers
a chorus
a wah-hoo
a oohhh
a fade out

lyric:

Here we go

I was working in the lab late one night

When my eyes beheld an eerie sight

When my monster, from its slab, began to rise

And suddenly to my surprise


He did the Mash, he did the Monster Mash

The Monster Mash, it was a graveyard smash

He did the Mash, it caught on in a flash

He did the Mash, he did the Monster Mash


From my laboratory in the castle east

To the master bedroom, where the vampires feast

The ghouls all came from their humble abodes

To get a jolt from my electrodes


He did the Mash, he did the Monster Mash

The Monster Mash, it was a graveyard smash

He did the Mash, they caught on in a flash

He did the Mash, they did the Monster Mash


The zombies were having fun

The party had just begun

The guests included the Wolfman

Dracula, and his son


The scene was rocking, all were digging the sound

Igor on chains, backed by his baying hounds

The Coffin Bangers were about to arrive

With their vocal group, The Crypt Keeper Five


They played the Mash, they played the Monster Mash

The Monster Mash, it was a graveyard smash

They played the Mash, they caught on in a flash

They played the Mash, they played the Monster Mash


Now everything is cool, Drac's a part of the band

And my Monster Mash is the hit of the land

For you, the living, this Mash was meant, too

When you get to my door, tell them Boris sent you


Then you can Mash, then you can Monster Mash

The Monster Mash, and you might graveyard smash

Then you can Mash, you'll catch on in a flash

Then you can Mash, then you can Monster Mash


Wha-oo Monster Mash

       Monster Mash

   Oh, Monster mash

       Ooh!


Текст, аккорды и табулатура для песни "Monster Mash", исполняет "Misfits".
Используемые в песне аккорды можно найти в разделе Как брать аккорды. Аккорды для шестиструнной гитары. Другие песни можно найти на нашем сайте, воспользовавшись алфавитным указателем вверху страницы.


Слушать онлайн Monster Mash


MisfitsMonster Mash на Яндекс.Музыке


 
Ошибка в тексте? Выделите ошибку и нажмите Ctrl+Enter