tune all guitars down 1/2 step
1)
eb----0--------0--------0-------0-----0-
Bb-----2--------3--------3-------0-----0
Gb------2--------0--------2-------------
Db-------------------0------------------
Ab--0-----------------------------------
Eb----------3-----------------0-----3---
verse
"My eyes see reality, my fingers seek my veins."

The main thing to remember about this song is even though it might
change the notes, the basic chord pattern for this part is the same
A G D E G A


2)
eb-----------------3/53----2h3p2----0----3---
Bb--------2h3p2----3/53----3--------0----3---
Gb------2-----------------2------------------2
Db----2-------------------0------------------2
Ab--0----------------------------------------0
Eb---------------3-----------------0----3-----
"I fall because I let go."
See? A G D E G A


3)
eb--0-0-0-0-0--0-0-0-0---------       -0-0-0-0--3-3-3--0-0-0---------
Bb--1-1-1-1-1--0-0-0-0---------       -1-1-1-1--3-3-3--1-1-1---------
Gb--2-2-2-2-2--0-0-0-0--------- three -2-2-2-2--0-0-0--0-0-0--4-4-4-4
Db--2-----2-2--2-----2--------- times -2-----2--0-0-0--2-2-2--4-4-4-4
Ab--0----------2-----2------0-2 then  -0-----0--2-2-2--3-3-3--2-2-2-2
Eb-------------0-----0--0-3----       ----------3-3-3----------------
"The trash fire is warm"
Ok this is A E then A G C B


4)
eb------------------------------------
Bb------------------------------------
Gb-------------4-4-4-4-4-4-4-4-4-4-4-4
Db-------------4-4-4-4-4-4-4-4-4-4-4-4
Ab--0-2-3-2-0--2-2-2-2-2-2-2-2-2-2-2-2
Eb------------------------------------
"Please forgive me"


5)
eb--0---------------3-3/53-2-2-2-2-3-2h3p2--------5-7-5-4-5
Bb--2-2-2-3-2h3p2---3-3/53-3---------------3--5-8----------
Gb--2-------------2-0-------2-------------------------------
Db--2---------------0-------0-------------------------------
Ab--0---------------2---------------------------------------
Eb------------------3---------------------------------------
solo-ish thing


6)
eb-----------------------------------
Bb--------1---------0----------------
Gb------2---2-----2---2-----2-0-2-4-2
Db-----------------------------------
Eb--0---------0----------------------
Eb----3---------2--------1-----------
"So low the sky is all I see."


Текст, аккорды и табулатура для песни "Low Mans Lyric", исполняет "Misfits".
Используемые в песне аккорды можно найти в разделе Как брать аккорды. Аккорды для шестиструнной гитары. Другие песни можно найти на нашем сайте, воспользовавшись алфавитным указателем вверху страницы.


 
Ошибка в тексте? Выделите ошибку и нажмите Ctrl+Enter