Band: misfits
Song: I turned into a martian

Tabber: John Cukras
Email: [email protected]

Tuning: Normal

Note: Found two versions of the chords,
So I did them both.

Riff 1:
E------------
B------------
G------------
D-----555----
A-888-333-333
E-666-----111

Riff 2:
E------------
B------------
G------------
D-77777----55
A-55555-33-33
E-------11--- x's 6

Riff 3:
E--------------------------------------------------
B--------------------------------------------------
G--------------------------------------------------
D--------555555-----------55-----------------555555
A-888888-333333-333333-33-33 x's 3---8888888-333333
E-666666--------111111-11------------6666666-------

Riff 4:
E------------
B------------
G------------
D-77777-55---
A-55555-33-33
E----------11 x's 6

Riff 3 x's 3

Riff 5: Played under solo
E---------------------
B---------------------
G---------------------
D-7777777777----------
A-5555555555-555555555
E------------333333333 x's 2 (then solo starts)

Solo:  
e|-10-15-10-15-|
B---------------
G---------------
D---------------
A---------------
E---------------

Riff 3 x's 7


Version 2:

Riff 1:
E------------
B------------
G------------
D---------888
A-666-888-666
E-444-666----

Riff 2:
E------------
B------------
G------------
D-55555-88---
A-33333-66-88
E----------66 x's 6

Riff 3:
E-------------------------------------------------
B-------------------------------------------------
G-------------------------------------------------
D--------------888888-88--------------------------
A-666666-88888-666666-66-88----------666666-888888
E-444444-66666-----------66 x's 3 ---444444-666666

Riff 2 x's 6

Riff 3 x's 3

Riff 4: Played under solo
E------------------
B------------------
G------------------
D-555555555--------
A-333333333-3333333
E-----------1111111 x's 4 (solo starts after 2nd time)

Solo:  
e|-10-15-10-15-|
B---------------
G---------------
D---------------
A---------------
E---------------

Riff 3 x's 7


Текст, аккорды и табулатура для песни "I Turned Into A Martian", исполняет "Misfits".
Используемые в песне аккорды можно найти в разделе Как брать аккорды. Аккорды для шестиструнной гитары. Другие песни можно найти на нашем сайте, воспользовавшись алфавитным указателем вверху страницы.


Слушать онлайн I Turned Into A Martian


MisfitsI Turned Into A Martian на Яндекс.Музыке


 
Ошибка в тексте? Выделите ошибку и нажмите Ctrl+Enter