Song: Green Hell
Band: The Misfits
Album: The Misfits
Music/Lyrics: Glenn Danzig
tabbed by rob

  00:00
                                    01                                
e|----------------|----------------|----------------|----------------|
b|----------------|----------------|----------------|----------------|
g|----------------|----------------|----------------|----------------|
D|----------------|----------------|----------------|--------55555555|
A|5555555555555555|5555555555555555|5555555555555555|5555555555555555|
E|3333333333333333|3333333333333333|3333333333333333|3333333333333333|            
  PM........................................................:

  00:10               
                                    02                                   
e|----------------|----------------|----------------|----------------|
b|----------------|----------------|----------------|----------------|
g|----3-----------|----------------|----------------|----------------|
D|3---1-5-55555555|----------------|----------------|--------55555555|
A|1-5---3-55555555|555555555555--55|5555555555555555|5555555555555555|
E|--3-----33333333|3333333333333333|3333333333333333|3333333333333333|
                   PM.......................................: 
  00:20               
         03               04               05               06            
e|----------------|----------------|----------------|----------------|
b|----------------|----------------|----------------|----------------|
g|----3-----------|----3-----------|----3-----------|----3-----------|
D|3---1-5-55555555|3---1-5-55555555|3---1-5-55555555|3---1-5-55555555|
A|1-5---3-55555555|1-5---3-55555555|1-5---3-55555555|1-5---3-55555555|
E|--3-----33333333|--3-----33333333|--3-----33333333|--3-----33333333|

  00:30                   
         07               08               09               10             
e|----------------|----------------|----------------|----------------|
b|----------------|----------------|----------------|----------------|
g|7---------------|----------------|----------------|----------------|
D|7-RING-OUT------|5---------------|2---------------|5---------------|
A|5-------|3---------------|0---------------|3---------------|
          PICKSLIDE
  00:40               
         11               12               13               14                 
e|----------------|----------------|----------------|----------------|
b|----------------|----------------|----------------|----------------|
g|----------------|----------------|----------------|----------------|
D|2---------------|5---------------|2---------------|5---------------|
A|2-RING-OUT------|5-RING-OUT------|2-RING-OUT------|5-RING-OUT------|
E|0---------------|3---------------|0---------------|3---------------|

  00:50                   
        15                                 16               17                
e|----------------|----------------|----------------|----------------|
b|----------------|----------------|----------------|----------------|
g|----------------|7---------------|----3-----------|----3-----------|
D|2---------------|7-RING-OUT------|3---1-5-55555555|3---1-5-55555555|
A|2-RING-OUT------|5-------|--3-----33333333|--3-----33333333|
                           PICKSLIDE
  01:00                
         18               19        20                                        
e|----------------|----------------|----------------|----------------|
b|----------------|----------------|----------------|----------------|
g|----3-----------|----3-----------|----------------|----------------|
D|3---1-5-55555555|3---1-5-55555555|5---------------|----------------|
A|1-5---3-55555555|1-5---3-55555555|5555555555555555|5555555555555555|
E|--3-----33333333|--3-----33333333|3333333333333333|3333333333333333|
                                     PM.............................:
  01:10                     
  20                                                                     
e|----------------|----------------|----------------|----------------|
b|----------------|----------------|----------------|----------------|
g|----------------|----------------|----3-----------|----------------|
D|----------------|--------55555555|3---1-5-55555555|----------------|
A|5555555555555555|5555555555555555|1-5---3-55555555|5555555555555555|
E|3333333333333333|3333333333333333|--3-----33333333|3333333333333333|
  PM......................:                          PM.............:
  01:20                
                   21                                       22             
e|----------------|----------------|----------------|----------------|
b|----------------|----------------|----------------|----------------|
g|----------------|----------------|----------------|----3-----------|
D|----------------|----------------|--------55555555|3---1-5-55555555|
A|5555555555555555|5555555555555555|5555555555555555|1-5---3-55555555|
E|3333333333333333|3333333333333333|3333333333333333|--3-----33333333|
  PM.......................................:
  01:30                   
         23               24               25               26                  
e|----------------|----------------|----------------|----------------|
b|----------------|----------------|----------------|----------------|
g|----3-----------|----3-----------|----3-----------|----3-----------|
D|3---1-5-55555555|3---1-5-55555555|3---1-5-55555555|3---1-5-55555555|
A|1-5---3-55555555|1-5---3-55555555|1-5---3-55555555|1-5---3-55555555|
E|--3-----33333333|--3-----33333333|--3-----33333333|--3-----33333333|

  01:40                                                            01:50
         27               28                       29                       
e|----------------|----------------|--------FEEDBACK|*^^~~^*^~^+++^++|
b|----------------|----------------|----------~^^~^^|*~~^~^~~*^^+^+++|
g|----3-----------|7---------------|-------^~~^^*~*~|TREMOLO^~*^^++++|
D|3---1-5-55555555|7-RING-OUT------|5----------^~^^~|^^*~~^~~++++++5x|
A|1-5---3-55555555|5---------------|5-RING-OUT======|========++++++5x|
E|--3-----33333333|----------------|3-------^^~^~~^~|^~^~~*^~++++++3x|
                                                                        

01. Here in this place lies a genie of death. Touch it... See it... Whoa!
02. Here in this place is the means to your end. Touch it... Feel it... Green Hell! 
03. You've done the best that someone could.
04. I bet you never knew you woke it.
05. And, don't you run away from me.
06. I bet you thought you really could in hell.
07. We're gonna burn in hell. Green Hell!
08. Like every hell but kind of green. Green Hell! Green Hell!
09. We're gonna face the mess we're in, in hell! Green Hell!
10. I think I'd rather be up here in hell. Green Hell!
11. You know, I f***ing shake apart in hell. Green Hell! 
12. I've got to find a way that you will stay. Green Hell!
13. Cannot forget about the heat in hell. Green Hell!
14. Hell is green, I need a flame. Green Hell! Green Hell!
15. Gonna burn in hell. Green Hell!
16. You've done the best that someone could.
17. I bet you never knew you woke it.
18. And, don't you run away from me.
19. I bet you thought you really could take it.
20. Here in this place lies a genie of death. Touch it... See it... Whoa!
21. Here in this place is a war to your end. Touch it... See it... Green Hell! 
22. You've done the best that someone could.
23. I bet you never knew you woke it.
24. And, don't you run away from me.
25. I bet you thought you really could.
26. You've done the best like no one could.
27. I bet you never knew you woke it.
28. We're gonna burn in hell.
29. Green Hell!


Текст, аккорды и табулатура для песни "Green Hell", исполняет "Misfits".
Используемые в песне аккорды можно найти в разделе Как брать аккорды. Аккорды для шестиструнной гитары. Другие песни можно найти на нашем сайте, воспользовавшись алфавитным указателем вверху страницы.


Слушать онлайн Green Hell (Fox Studio 1983)


MisfitsGreen Hell (Fox Studio 1983) на Яндекс.Музыке


 
Ошибка в тексте? Выделите ошибку и нажмите Ctrl+Enter