Band: misfits
Song: Earth AD

Tabber: John Cukras
Email: [email protected]

Tuning: normal

E---------
B---------
G---------
D-5--4--6-
A-3--2--4-  x's 2
E---------

E----------------------------
B----------------------------
G----------------------------
D-55-44-66----------22-77----
A-33-22-44  x's 4---22-55-33-  x's 2
E-------------------00----11-

Then ^ x's 2     and    ^ x's 2

E----------------------------------------
B----------------------------------------
G----------------------------------------
D-44-55-44-----------------------------2-
A-22-33-22-33-33-33 x's 2--33-33-33-33-2-
E----------11-11-11--------11-11-11-11-0-

E----------------------------
B----------------------------
G----------------------------
D-55-44-66----------22-77----
A-33-22-44  x's 4---22-55-33-  x's 2
E-------------------00----11-

Then ^ x's 2     and    ^ x's 2

E----------------------------------------
B----------------------------------------
G----------------------------------------
D-44-55-44-----------------------------2-
A-22-33-22-33-33-33 x's 2--33-33-33-33-2- x's 2
E----------11-11-11--------11-11-11-11-0-

C B D C# (2x)
 C B C# (4x)  E D F (2x)
 C B C# (2x)  E D F (2x)
 B C B F (2x)  F
 E  w/noise
 C B C# (4x)  E D F (2x)
 C B C# (2x)  E D F (2x)
 B C B F (2x)  F [2x]
 E  w/noise


Текст, аккорды и табулатура для песни "Earth Ad", исполняет "Misfits".
Используемые в песне аккорды можно найти в разделе Как брать аккорды. Аккорды для шестиструнной гитары. Другие песни можно найти на нашем сайте, воспользовавшись алфавитным указателем вверху страницы.


 
Ошибка в тексте? Выделите ошибку и нажмите Ctrl+Enter