Band: Misfits
Song: Day of the Dead

Tabber: John Cukras
Email: [email protected]

Tuning: E flat/Normal

E---------------------
B---------------------
G---------------------
D-2-----7-2~--4-------
A-2-5-7-5-2~--2-7-5-4- x's 2
E-0-3-5---0~----5-3-2-

E--------------------------------------------------------------------------
B--------------------------------------------------------------------------
G--------------------------------------------------------------------------
D--------------------------------------------------------------------------
A-777/666/777/666/777/666-4------4------3------4-----3-----4-----3-444-6-7-
E-555/444/555/444/555/444-2-222222-111111-222222-11111-22222-11111-222-4-5- x's 2,
pm                          .....  .....  .....  ....  ....  ....          on third time just A/G#/A

E------------------------------
B------------------------------
G------------------------------
D-77777-------7777-22--4-------
A-55555-77777-5555-22--2-7-5-4-
E-------55555------00----5-3-2-

E------------------------------------------------------
B------------------------------------------------------
G------------------------------------------------------
D---------------------------------------------4--------
A-4444-3333-4444-3333--77777-66666-7777-6666--2-7-5-4--
E-2222-1111-2222-1111--55555-44444-5555-4444----5-3-2--

E--------------------------------------------------------------
B--------------------------------------------------------------
G--------------------------------------------------------------
D--------------------------------------------------------------
A-4444-3333-7777-6666--------------7777-6666 3 more times--7-6-
E-2222-1111-5555-4444 x's 4, then -5555-4444---------------5-4-

E------------------------------------------------------
B------------------------------------------------------
G------------------------------------------------------
D------------------------------------------------------
A-33333333-4444444-777-666-444-333---------4-3----7-6--
E-11111111-2222222-555-444-222-111-222-111-2-1----5-4--
pm                                 ... ...


Текст, аккорды и табулатура для песни "Day Of The Dead", исполняет "Misfits".
Используемые в песне аккорды можно найти в разделе Как брать аккорды. Аккорды для шестиструнной гитары. Другие песни можно найти на нашем сайте, воспользовавшись алфавитным указателем вверху страницы.


Слушать онлайн Day Of The Dead


MisfitsDay Of The Dead на Яндекс.Музыке


 
Ошибка в тексте? Выделите ошибку и нажмите Ctrl+Enter