-------------------------------------------------------------------------------
			     BLACKLIGHT - The Misfits
-------------------------------------------------------------------------------

Tabbed by: Danc446
Email: [email protected]

Tuning: 1/2 step down

INTRO
e|------------------------------------------------------------|
B|------------------------------------------------------------|
G|-----------------5-5-5-5------------------5-5-5-5-----------|
D|--------3-3-3-3--5-5-5-5-7-7-7-7--3-3-3-3-5-5-5-5-----------|
A|--------3-3-3-3--3-3-3-3-7-7-7-7--3-3-3-3-3-3-3-3-----------|
E|--131--1-1-1-1----------5-5-5-5--1-1-1-1----------1/131---|

RIFF
e|----------------------------------------|
B|----------------------------------------|
G|----------------------------------------|
D|--7--7-7-7-7-7-7--5--7--7-7-7-7-7-7--5--|
A|--7--7-7-7-7-7-7--5--7--7-7-7-7-7-7--5--|
E|--5--5-5-5-5-5-5--3--5--5-5-5-5-5-5--3--|
pm     ***********        ***********

CHORUS   First and second time
e|------------------------------------------------------------------|
B|------------------------------------------------------------------|
G|------------------------------------------------------------------|
D|-3-3-3-3/7-7-7-73-3-3-3/7-7-7-73-3-3-3/7-7-7-73-3-3-3/7-7-7-7--|
A|-3-3-3-3/7-7-7-73-3-3-3/7-7-7-73-3-3-3/7-7-7-73-3-3-3/7-7-7-7--|
E|-1-1-1-1/5-5-5-51-1-1-1/5-5-5-51-1-1-1/5-5-5-51-1-1-1/5-5-5-5--|

e|------------------------------|
B|------------------------------|
G|--7-7-7-7-7--7/9-9-9-9-9-9-9--|
D|--7-7-7-7-7--7/9-9-9-9-9-9-9--|
A|--5-5-5-5-5--5/7-7-7-7-7-7-7--|
E|------------------------------|

CHORUS     Third time only
e|------------------------------------------------------------------|
B|------------------------------------------------------------------|
G|------------------------------------------------------------------|
D|--3-3-3-3/7-7-7-73-3-3-3/7-7-7-73-3-3-3/7-7-7-73-3-3-3/5-5-5-5-|
A|--3-3-3-3/7-7-7-73-3-3-3/7-7-7-73-3-3-3/7-7-7-73-3-3-3/5-5-5-5-|
E|--1-1-1-1/5-5-5-51-1-1-1/5-5-5-51-1-1-1/5-5-5-51-1-1-1/3-3-3-3-|

e|------------------------------|
B|------------------------------|
G|--7-7-7-7-7--7/9-9-9-9-9-9-9--|
D|--7-7-7-7-7--7/9-9-9-9-9-9-9--|
A|--5-5-5-5-5--5/7-7-7-7-7-7-7--|
E|------------------------------|

FILL
e|--------------------------|
B|--------------------------|
G|----------5-5-5-5---------|
D|--3-3-3-3-5-5-5-5---------|
A|--3-3-3-3-3-3-3-3---------|
E|--1-1-1-1---------1/131--|

OUTRO
e|------------------------------------------------------|
B|------------------------------------------------------|
G|----------5-5-5-5------------------5-5-5-5------------|
D|-3-3-3-3--5-5-5-5-7-7-7-7--3-3-3-3-5-5-5-5-7:--5--7:--|
A|-3-3-3-3--3-3-3-3-7-7-7-7--3-3-3-3-3-3-3-3-7:--5--7:--|
E|-1-1-1-1----------5-5-5-5--1-1-1-1---------5:--3--5;--|

| /  slide up
|   slide down
| h  hammer-on
| p  pull-off
| ~  vibrato
| +  harmonic
| x  Mute note
| :  Let ring
===============================================================================


Текст, аккорды и табулатура для песни "Blacklight", исполняет "Misfits".
Используемые в песне аккорды можно найти в разделе Как брать аккорды. Аккорды для шестиструнной гитары. Другие песни можно найти на нашем сайте, воспользовавшись алфавитным указателем вверху страницы.


Слушать онлайн Blacklight


MisfitsBlacklight на Яндекс.Музыке


 
Ошибка в тексте? Выделите ошибку и нажмите Ctrl+Enter