-------------------------------------------------------------------------------
			     SONG NAME - Band Name
-------------------------------------------------------------------------------

Tabbed by: danc446
Email: [email protected]

Tuning: 1/2 Step Down

A REALLY COOL INSTRUMENTAL PIECE BY THE 'FITS:
  DOYAL'S 10 BIZZILION MEGAWATT GUITAR, ONLY'S POUNDING BASS,
  AND DR. PHIBES PLAYING THE ORGAN, ARRANGED FOR GUITAR...
  IN THE VIDEO, THIS SONG LEADS RIGHT INTO AMERICAN PSYCHO, NO PAUSE...

RIFF 1
e|----------------------|--|---------|---------------------|----|
B|----------------------|--|---------|---------------------|----|
G|---9::::-----9::::----|--|---OR----|--9:---------9:------|----|
D|---9::::-----9::::----|x2|-INSTEAD-|--9:--9::----9:-10::-| X2-|
A|---7::::-----7::::----|--|---------|--7:--9::----7:-10::-|----|
E|------7:--------8:----|--|---------|------7::-------8:::-|----|

RIFF 2
e|---------------------------------------------------------------------------|
B|---------------------------------------------------------------------------|
G|---------------------------------------------------------------------------|
D|---12--10:-----7---9::-----10---9:---5--7::--------------------------------|
A|---12--10:-----7---9::-----10---9:---5--7::--------------------------------|
E|---10---8:-----5---7::------8---7:---3--5::--------------------------------|

e|---------------------------------------------------------------------------|
B|---------------------------------------------------------------------------|
G|---------------------------------------------------------------------------|
D|---5----4----2::-----------------------------------------------------------|
A|---5----4----2::-----------------------------------------------------------|
E|---3----2----0::-----------------------------------------------------------|

RIFF 1
RIFF 2
RiFF 1
RIFF 2
RIFF 3
| /  slide up
|   slide down
| h  hammer-on
| p  pull-off
| ~  vibrato
| +  harmonic
| x  Mute note
| :  Let it ring!!!
===============================================================================


Текст, аккорды и табулатура для песни "Abominable Dr Phibes", исполняет "Misfits".
Используемые в песне аккорды можно найти в разделе Как брать аккорды. Аккорды для шестиструнной гитары. Другие песни можно найти на нашем сайте, воспользовавшись алфавитным указателем вверху страницы.


Слушать онлайн Abominable Dr. Phibes


MisfitsAbominable Dr. Phibes на Яндекс.Музыке


 
Ошибка в тексте? Выделите ошибку и нажмите Ctrl+Enter