This is one of my intermediate bass solos, i dont have names for my stuff so
i just make them up i made a guide because i have too much time on my hands..

contact me @ [email protected]

G-----12-------15---------------12----15------------12-------15----------
D--13----13-13----13-13-12---12----12---------12-13----13-13----13-13-13-
A------------------------------------------------------------------------
E------------------------------------------------------------------------
   1  +  2  +  3  +  4  +  1 +  2  +  3  + 4  +  1  +  2  +  3  +  4  +

G--12----------19-----------------------------------------------19-17-15-
D-----13-13-13------17------20-------20------------------17--------------
A------------------------18----18-18----18-18-17---17-17----17-----------
E------------------------------------------------------------------------
   1  +  2  +  3 +  4  +  1 +  2  +  3  +  4  +  1  + 2   +  3  +  4  +

G-----12-------19-17-15-12------------------------
D--13----13-13---------------12-12-13-15-13-15-17-
A-------------------------------------------------
E-------------------------------------------------
   1  +  2  +  3  +  4  + 1  +  2  +  3  +  4  +

G-----12-------15---------------12----15-----------12-------15----------
D--13----13-13----13-13-12---12----12--------12-13----13-13----13-13-13-
A-----------------------------------------------------------------------
E-----------------------------------------------------------------------
   1  +  2  +  3  +  4  +  1 +  2  +  3 + 4  +  1  +  2  +  3  +  4  +

G--12----------19-----------------------------------------------19-17-15-
D-----13-13-13------17------20-------20------------------17--------------
A------------------------18----18-18----18-18-17---17-17----17-----------
E------------------------------------------------------------------------
   1  +  2  +  3 +  4  +  1 +  2  +  3  +  4  +  1  + 2   +  3  +  4  +

Slow down here plz GET IT SLOW DOWN BUSDRIVR AHAHHAHHAHAHHAHAHAHAHHA

G-----12-------19-17-15-12---------------------18----
D--13----13-13---------------12-12-13-15-17-17----17-
A----------------------------------------------------
E----------------------------------------------------
   1  +  2  +  3  +  4  + 1  +  2  +  3  +  4  +  1...


Текст, аккорды и табулатура для песни "The Homosexual Busdriver", исполняет "Misc Your Songs".
Используемые в песне аккорды можно найти в разделе Как брать аккорды. Аккорды для шестиструнной гитары. Другие песни можно найти на нашем сайте, воспользовавшись алфавитным указателем вверху страницы.


 
Ошибка в тексте? Выделите ошибку и нажмите Ctrl+Enter