----------------------------------------------------------------------------
			     Tha ILL Song 
Tabbed by:Josh


Tuning:Dropped D

e|-------------------------------------------------------------------------|
B|-------------------------------------------------------------------------|
G|-------------------------------------------------------------------------|
D|-----10-7-10-7---7-----10-7-10-7---7-------9-5-9-5---5-----9-5-9-5---5---|
A|---7-----------7-----7-----------7-------5---------5-----5---------5-----|
E|-7-----------------7-------------------5---------------5-----------------|

e|-------------------------------------------------------------------------|
B|-------------------------------------------------------------------------|
G|-------------------------------------------------------------------------|
D|-------14-12-14-12-10-12--------14-12-14-12-10-12--------14-12-14-12-10--|
A|----10-----------------------10-----------------------12-----------------|
E|-10-----------------------10-----------------------12--------------------|

e|-------------------------------------------------------------------------|
B|-------------------------------------------------------------------------|
G|-------------------------------------------------------------------------|
D|12-------14-12-14-12-10-12-----10-7-10-7---7-----10-7-10-7---7-----9-5-9-|
A|------12---------------------7-----------7-----7-----------7-----5-------|
E|---12----------------------7-----------------7-----------------5---------|

e|-------------------------------------------------------------------------|
B|-------------------------------------------------------------------------|
G|-------------------------------------------------------------------------|
D|5---5-----9-5-9-5---5-------14-12-14-12-10-12-------14-12-14-12-10-12----|
A|--5-----5---------5------10----------------------10----------------------|
E|------5---------------10----------------------10----------------------12-|

e|-------------------------------------------------------------------------|
B|-------------------------------------------------------------------------|
G|-------------------------------------------------------------------------|
D|---14-12-14-12-10-12-------14-12-14-12-10-10h12~~-12-12-12-12p10-1097~~|
A|12----------------------12-----------------------------------------------|
E|---------------------12--------------------------------------------------|

e|-------------------------------------------------------------------------|
B|-------------------------------------------------------------------------|
G|-------------------------------------------------------------------------|
D|-7-7-7-7/9h10--10-10--------------------0-0-9-9--------------------0-0---|
A|---------------7--7-(strum-a-few-times)-0-0-5-5(strum-a-few-times)-0-0---|
E|---------------7--7---------------------0-0-5-5--------------------0-0---|

e|-------------------------------------------------------------------------|
B|-------------------------------------------------------------------------|
G|-------------------------------------------------------------------------|
D|-5-5-5/75-5-5h7-7-7-5h7p5--10-10--0-0-9-9-0-0-5-5-5/75-5-5h7-7-7-5h7p5-|
A|-3-3-3/75-5-5---5-5-5------7--7---0-0-5-5-0-0-3-3-3/75-5-5---5-5-5-----|
E|-3-3-3/75-5-5---5-5-5------7--7---0-0-5-5-0-0-3-3-3/75-5-5---5-5-5-----|

e|-------------------------------------------------------------------------|
B|-------------------------------------------------------------------------|
G|-------------------------------------------------------------------------|
D|-10-10-0-0-9-9-5-5/10-10h14-14-14-12-12-12-12h14-14-14-12-12-0-0-10------|
A|-7--7--0-0-5-5-5-5/10-10----10-10-10-10-12-12----12-12-12-12-0-0-7-------|
E|-7--7--0-0-5-5-5-5/10-10----10-10-10-10-12-12----12-12-12-12-0-0-7-------|

Tbere's a lot more to the song, but i dont feel like puttin the rest down, feel
free to mess around with it, and find a good rhythym to go with the chords.
| /  slide up
|   slide down
| h  hammer-on
| p  pull-off
| ~  vibrato
| +  harmonic
| x  Mute note


Текст, аккорды и табулатура для песни "Tha Ill Song", исполняет "Misc Your Songs".
Используемые в песне аккорды можно найти в разделе Как брать аккорды. Аккорды для шестиструнной гитары. Другие песни можно найти на нашем сайте, воспользовавшись алфавитным указателем вверху страницы.


 
Ошибка в тексте? Выделите ошибку и нажмите Ctrl+Enter