Please put this into your misc. your songs page please
Written By: Ryan O'Hallahan
Email:[email protected]
Tuning:Standard
EADGBe

(Intro+verse)
e|------------------------------------------------------|
B|------------------------------------------------------|
G|------------------------------------------------------|
D|-3-3-2--2-2-3-----2-2-2-3-3-3-----2-3-2-3--3-3-3-3-2--|
A|-3-3-2--2-2-3-----2-2-2-3-3-3-----2-3-2-3--3-3-3-3-2--|
E|-1-1-0--0-0-1-x4--0-0-0-1-1-1-x3--0-1-0-1--1-1-1-1-0-x2

e|------------------------------------------------------|
B|------------------------------------------------------|
G|------------------------------------------------------|
D|-3-3-3-3-2-3-2-3--------------------------------------|
A|-3-3-3-3-2-3-2-3--------------------------------------|
E|-1-1-1-1-0-1-0-1--------------------------------------|
(still intro+verse)
e|------------------------------------------------------|
B|------------------------------------------------------|
G|------------------------------------------------------|
D|-2-2-2-2-3-----3-2-3-2--3-3-3-3-2-2-2-2---------------|
A|-2-2-2-2-3-----3-2-3-2--3-3-3-3-2-2-2-2---------------|
E|-0-0-0-0-1-x3--1-0-1-0--1-1-1-1-1-0-0-0x3-------------|

e|------------------------------------------------------|
B|------------------------------------------------------|
G|------------------------------------------------------|
D|-2-2-2-2-3-3-3-3----2-2-2-2-3-2-3-2-------------------|
A|-2-2-2-2-3-3-3-3----2-2-2-2-3-2-3-2--2-2-0-2--2-2-2-0-|
E|-0-0-0-0-1-1-1-1-x3-0-0-0-0-1-0-1-0--0-0-3-0--0-0-0-1x4

(solo)
e|------------------------------------------------------|
B|-2p3p2-0--2p3p2-0---2p3p2-0---------------------------|
G|---------2--------1---------0-------------------------|
D|------------------------------1234567-----------------|
A|------------------------------------------------------|
E|------------------------------------------------------|
(solo continued)
e|---13-14---------13-15----------13-16-----------------|
B|-12-----14-12--12-----14-12--12-------14-12-----------|
G|------------------------------------------------------|
D|------------------------------------------------------|
A|------------------------------------------------------|
E|------------------------------------------------------|
(solo continued)
e|------------------------------------------------------|
B|------------------------------------------------------|
G|------------------------------------------------------|
D|-14-15-16-17-18-18-17-16-15-14------------------------|
A|-12-13-14-15-16-16-15-14-13-12x2----------------------|
E|------------------------------------------------------|
(verse)
e|------------------------------------------------------|
B|------------------------------------------------------|
G|------------------------------------------------------|
D|------------------------------------------------------|
A|-7-7-10--10-10-11--11-11-12--12-11-11-11-10-7---------|
E|-9-9--8---8--8--9---9--9-10--10--9--9--9--8-9-x2------|

e|------------------------------------------------------|
B|------------------------------------------------------|
G|------------------------------------------------------|
D|------------------------------------------------------|
A|------------------------------------------------------|
E|-0-2-0-3-0-0-2--0-2-0-3-0-2-0-x2----------------------|

(end)(Let fade into background,just soften your playing)
e|------------------------------------------------------|
B|------------------------------------------------------|
G|------------------------------------------------------|
D|------------------------------------------------------|
A|------------------------------------------------------|
E|-0-0-0-0-1/5-0-0-0-0-5/1-x2-0-1-0-5-0-1-0-5-----------|


Текст, аккорды и табулатура для песни "Ryan Ohallahan - Song 1", исполняет "Misc Your Songs".
Используемые в песне аккорды можно найти в разделе Как брать аккорды. Аккорды для шестиструнной гитары. Другие песни можно найти на нашем сайте, воспользовавшись алфавитным указателем вверху страницы.


 
Ошибка в тексте? Выделите ошибку и нажмите Ctrl+Enter