-------------------------------------------------------------------------------
		 Cool song i made up-nick lukowski
-------------------------------------------------------------------------------
Tabbed by: Nick Lukowski
Email: [email protected]


HEY EVERYONE IM 15 AND THIS IS MY FIRST SONG AND I HOPE YOU ALL LIKE IT!!!!!!!!!!!!!!!!


Tuning:

e|-----------------------------------------------------------------------------|
B|-----------------------------------------------------------------------------|
G|-----------------------------------------------------------------------------|
D|-7-7-7-7-14-14-14-14-9-9-9-9-11-11-11-11-6-6-6-6-7-7-7-7-6-6-6-6-7-7-7-7-----|
-|
A|-7-7-7-7-14-14-14-14-9-9-9-9-11-11-11-11-6-6-6-6-7-7-7-7-6-6-6-6-7-7-7-7
-|
E|-5-5-5-5-12-12-12-12-7-7-7-7-9--9--9--9--4-4-4-4-5-5-5-5-4-4-4-4-5-5-5-5
PM......................................................................X2


e|-----------------------------------------------------------------------------|
B|-----------------------------------------------------------------------------|
G|-----------------------------------------------------------------------------|
D|-9-9-9-9----------6-6-6-6---------4-4-4-4---------2-2-2-2--------------------|

A|-9-9-9-9--9-7-6---6-6-6-6--9-7-6--4-4-4-4--7-6-4--2-2-2-2--7-6-4------|X4

E|-7-7-7-7----------4-4-4-4---------2-2-2-2---------0-0-0-0---------------|

e|-----------------------------------------------------------------------------|
B|-----------------------------------------------------------------------------|
G|-------6---------------------6-----------------------------------------------|
D|----------7--9--7--6h7p6-------7--9--7--6h7p6--------------------------------|
A|---0-0------------------7-0-0-----------------7------------------------------|
E|-----------------------------------------------------------------------------|

e|---------------------------------------------------------------------------|
B|---------------------------------------------------------------------------|
G|--------6--------------------------6---------------------------------------|
D|----------7--9--7-6h7p6---------------7--9--7--6h7p6-----------------------|
A|---4-4------------------7-----4-4---------------------7--------------------|
E|---------------------------------------------------------------------------|

e|------------------------------------|
B|------------------------------------|
G|------------------------------------|
D|--2-2--4--6-2--2--4--6-7-6h7p6-4-2--|
A|--0-0-------0--0--------------------|
E|------------------------------------| pm..........................................

e|-----------------------------------------------------------------------------|
B|-----------------------------------------------------------------------------|
G|-----------------------------------------------------------------------------|
D|-14--9-11-7-6-4--------------------------------------------------------------|
A|-14--9-11-7-6-4---X2---------------------------------------------------------|
E|-12--7--9-5-4-2--------------------------------------------------------------|

e|-----------------------------------------------------------------------------|
B|-----------------------------------------------------------------------------|
G|-------------------9---------------------------------------------------------|
D|-------------------9~~~~~~~--------------------------------------------------|
A|--2-4-6--2-4-6-4-6-7---------------------------------------------------------|
E|-----------------------------------------------------------------------------|

| /  slide up
|   slide down
| h  hammer-on
| p  pull-off
| ~  vibrato
| +  harmonic
| x  Mute note
===============================================================================


Текст, аккорды и табулатура для песни "Nick Lukowski - Cool Song", исполняет "Misc Your Songs".
Используемые в песне аккорды можно найти в разделе Как брать аккорды. Аккорды для шестиструнной гитары. Другие песни можно найти на нашем сайте, воспользовавшись алфавитным указателем вверху страницы.


 
Ошибка в тексте? Выделите ошибку и нажмите Ctrl+Enter