-------------------------------------------------------------------------------
			    All I Want- N.B.N. (Never Be Normal)
-------------------------------------------------------------------------------
This is my own tab. You can put words to it or play it as you like but its mine
and copyrighted so you can't steal it.
Tabbed by:Me

Tuning:E A D G B e
   Key
^= upstroke

Pick each chord out 
    C
e|--0--
B|--1--
G|--0--
D|--2--
A|--3--
E|--0--
    
    C7
e|--1--
B|--0--
G|--0--
D|--2--
A|--3--
E|--0--

    G
e|--3--
B|--0--
G|--0--
D|--0--
A|--2--
E|--3--

    ?
e|--3--
B|--1--
G|--0--
D|--0--
A|--2--
E|--3--
E|-----

Start Strumming Again
  Play Slowly
  
      C      C^     C      C^      C      C^      
e|----0------0------0------0-------0------0--------------------------------
B|----1------1------1------1-------1------1--------------------------------
G|----0------0------0------0-------0------0--------------------------------
D|----2------2------2------2-------2------2--------------------------------
A|----3------3------3------3-------3------3--------------------------------
E|----0------0------0------0-------0------0--------------------------------

      C7     C7^    C7     C7^     C7     C7^
e|----1------1------1------1-------1------1--------------------------------
B|----0------0------0------0-------0------0--------------------------------
G|----0------0------0------0-------0------0--------------------------------
D|----2------2------2------2-------2------2--------------------------------
A|----3------3------3------3-------3------3--------------------------------
E|----0------0------0------0-------0------0--------------------------------


      G      G^     G      G^      G      G^
e|----3------3------3------3-------3------3--------------------------------
B|----0------0------0------0-------0------0--------------------------------
G|----0------0------0------0-------0------0--------------------------------
D|----0------0------0------0-------0------0--------------------------------
A|----2------2------2------2-------2------2--------------------------------
E|----3------3------3------3-------3------3--------------------------------

      G      G^     G      G^      G      G^
e|----3------3------3------3-------3------3--------------------------------
B|----0------0------0------0-------0------0--------------------------------
G|----0------0------0------0-------0------0--------------------------------
D|----0------0------0------0-------0------0--------------------------------
A|----2------2------2------2-------2------2--------------------------------
E|----3------3------3------3-------3------3--------------------------------

      C      C^     C      C^      C      C^      
e|----0------0------0------0-------0------0--------------------------------
B|----1------1------1------1-------1------1--------------------------------
G|----0------0------0------0-------0------0--------------------------------
D|----2------2------2------2-------2------2--------------------------------
A|----3------3------3------3-------3------3--------------------------------
E|----0------0------0------0-------0------0--------------------------------

      C7     C7^    C7     C7^     C7     C7^
e|----1------1------1------1-------1------1--------------------------------
B|----0------0------0------0-------0------0--------------------------------
G|----0------0------0------0-------0------0--------------------------------
D|----2------2------2------2-------2------2--------------------------------
A|----3------3------3------3-------3------3--------------------------------
E|----0------0------0------0-------0------0--------------------------------


      G      G^     G      G^      G      G^
e|----3------3------3------3-------3------3--------------------------------
B|----0------0------0------0-------0------0--------------------------------
G|----0------0------0------0-------0------0--------------------------------
D|----0------0------0------0-------0------0--------------------------------
A|----2------2------2------2-------2------2--------------------------------
E|----3------3------3------3-------3------3--------------------------------

      ?      ?^     ?      ?^      ?      ?^
e|----3------3------3------3-------3------3--------------------------------
B|----1------1------1------1-------1------1--------------------------------
G|----0------0------0------0-------0------0--------------------------------
D|----0------0------0------0-------0------0--------------------------------
A|----2------2------2------2-------2------2--------------------------------
E|----3------3------3------3-------3------3--------------------------------

Play Faster

      C      C^     C      C^      C      C^      
e|----0------0------0------0-------0------0--------------------------------
B|----1------1------1------1-------1------1--------------------------------
G|----0------0------0------0-------0------0--------------------------------
D|----2------2------2------2-------2------2--------------------------------
A|----3------3------3------3-------3------3--------------------------------
E|----0------0------0------0-------0------0--------------------------------

      C7     C7^    C7     C7^     C7     C7^
e|----1------1------1------1-------1------1--------------------------------
B|----0------0------0------0-------0------0--------------------------------
G|----0------0------0------0-------0------0--------------------------------
D|----2------2------2------2-------2------2--------------------------------
A|----3------3------3------3-------3------3--------------------------------
E|----0------0------0------0-------0------0--------------------------------


      G      G^     G      G^      G      G^
e|----3------3------3------3-------3------3--------------------------------
B|----0------0------0------0-------0------0--------------------------------
G|----0------0------0------0-------0------0--------------------------------
D|----0------0------0------0-------0------0--------------------------------
A|----2------2------2------2-------2------2--------------------------------
E|----3------3------3------3-------3------3--------------------------------

      G      G^     G      G^      G      G^
e|----3------3------3------3-------3------3--------------------------------
B|----0------0------0------0-------0------0--------------------------------
G|----0------0------0------0-------0------0--------------------------------
D|----0------0------0------0-------0------0--------------------------------
A|----2------2------2------2-------2------2--------------------------------
E|----3------3------3------3-------3------3--------------------------------

      C      C^     C      C^      C      C^      
e|----0------0------0------0-------0------0--------------------------------
B|----1------1------1------1-------1------1--------------------------------
G|----0------0------0------0-------0------0--------------------------------
D|----2------2------2------2-------2------2--------------------------------
A|----3------3------3------3-------3------3--------------------------------
E|----0------0------0------0-------0------0--------------------------------

      C7     C7^    C7     C7^     C7     C7^
e|----1------1------1------1-------1------1--------------------------------
B|----0------0------0------0-------0------0--------------------------------
G|----0------0------0------0-------0------0--------------------------------
D|----2------2------2------2-------2------2--------------------------------
A|----3------3------3------3-------3------3--------------------------------
E|----0------0------0------0-------0------0--------------------------------


      G      G^     G      G^      G      G^
e|----3------3------3------3-------3------3--------------------------------
B|----0------0------0------0-------0------0--------------------------------
G|----0------0------0------0-------0------0--------------------------------
D|----0------0------0------0-------0------0--------------------------------
A|----2------2------2------2-------2------2--------------------------------
E|----3------3------3------3-------3------3--------------------------------

      G      G^     G      G^      G      G^
e|----3------3------3------3-------3------3--------------------------------
B|----0------0------0------0-------0------0--------------------------------
G|----0------0------0------0-------0------0--------------------------------
D|----0------0------0------0-------0------0--------------------------------
A|----2------2------2------2-------2------2--------------------------------
E|----3------3------3------3-------3------3--------------------------------

      C      C^     C      C^      C      C^      
e|----0------0------0------0-------0------0--------------------------------
B|----1------1------1------1-------1------1--------------------------------
G|----0------0------0------0-------0------0--------------------------------
D|----2------2------2------2-------2------2--------------------------------
A|----3------3------3------3-------3------3--------------------------------
E|----0------0------0------0-------0------0--------------------------------

      C7     C7^    C7     C7^     C7     C7^
e|----1------1------1------1-------1------1--------------------------------
B|----0------0------0------0-------0------0--------------------------------
G|----0------0------0------0-------0------0--------------------------------
D|----2------2------2------2-------2------2--------------------------------
A|----3------3------3------3-------3------3--------------------------------
E|----0------0------0------0-------0------0--------------------------------


      G      G^     G      G^      G      G^
e|----3------3------3------3-------3------3--------------------------------
B|----0------0------0------0-------0------0--------------------------------
G|----0------0------0------0-------0------0--------------------------------
D|----0------0------0------0-------0------0--------------------------------
A|----2------2------2------2-------2------2--------------------------------
E|----3------3------3------3-------3------3--------------------------------

      G      G^     G      G^      G      G^
e|----3------3------3------3-------3------3--------------------------------
B|----0------0------0------0-------0------0--------------------------------
G|----0------0------0------0-------0------0--------------------------------
D|----0------0------0------0-------0------0--------------------------------
A|----2------2------2------2-------2------2--------------------------------
E|----3------3------3------3-------3------3--------------------------------

      C      C^     C      C^      C      C^      
e|----0------0------0------0-------0------0--------------------------------
B|----1------1------1------1-------1------1--------------------------------
G|----0------0------0------0-------0------0--------------------------------
D|----2------2------2------2-------2------2--------------------------------
A|----3------3------3------3-------3------3--------------------------------
E|----0------0------0------0-------0------0--------------------------------

      C7     C7^    C7     C7^     C7     C7^
e|----1------1------1------1-------1------1--------------------------------
B|----0------0------0------0-------0------0--------------------------------
G|----0------0------0------0-------0------0--------------------------------
D|----2------2------2------2-------2------2--------------------------------
A|----3------3------3------3-------3------3--------------------------------
E|----0------0------0------0-------0------0--------------------------------


      G      G^     G      G^      G      G^
e|----3------3------3------3-------3------3--------------------------------
B|----0------0------0------0-------0------0--------------------------------
G|----0------0------0------0-------0------0--------------------------------
D|----0------0------0------0-------0------0--------------------------------
A|----2------2------2------2-------2------2--------------------------------
E|----3------3------3------3-------3------3--------------------------------


      ?      ?^     ?      ?^      ?      ?^
e|----3------3------3------3-------3------3--------------------------------
B|----1------1------1------1-------1------1--------------------------------
G|----0------0------0------0-------0------0--------------------------------
D|----0------0------0------0-------0------0--------------------------------
A|----2------2------2------2-------2------2--------------------------------
E|----3------3------3------3-------3------3--------------------------------

Play Slowly
  
      C      C^     C      C^      C      C^      
e|----0------0------0------0-------0------0--------------------------------
B|----1------1------1------1-------1------1--------------------------------
G|----0------0------0------0-------0------0--------------------------------
D|----2------2------2------2-------2------2--------------------------------
A|----3------3------3------3-------3------3--------------------------------
E|----0------0------0------0-------0------0--------------------------------

      C7     C7^    C7     C7^     C7     C7^
e|----1------1------1------1-------1------1--------------------------------
B|----0------0------0------0-------0------0--------------------------------
G|----0------0------0------0-------0------0--------------------------------
D|----2------2------2------2-------2------2--------------------------------
A|----3------3------3------3-------3------3--------------------------------
E|----0------0------0------0-------0------0--------------------------------


      G      G^     G      G^      G      G^
e|----3------3------3------3-------3------3--------------------------------
B|----0------0------0------0-------0------0--------------------------------
G|----0------0------0------0-------0------0--------------------------------
D|----0------0------0------0-------0------0--------------------------------
A|----2------2------2------2-------2------2--------------------------------
E|----3------3------3------3-------3------3--------------------------------

      ?      ?^     ?      ?^      ?      ?^
e|----3------3------3------3-------3------3--------------------------------
B|----1------1------1------1-------1------1--------------------------------
G|----0------0------0------0-------0------0--------------------------------
D|----0------0------0------0-------0------0--------------------------------
A|----2------2------2------2-------2------2--------------------------------
E|----3------3------3------3-------3------3--------------------------------


Текст, аккорды и табулатура для песни "Nbn - All I Want", исполняет "Misc Your Songs".
Используемые в песне аккорды можно найти в разделе Как брать аккорды. Аккорды для шестиструнной гитары. Другие песни можно найти на нашем сайте, воспользовавшись алфавитным указателем вверху страницы.


 
Ошибка в тексте? Выделите ошибку и нажмите Ctrl+Enter