I wrote this myself, im 16 n from england, UK 
just thought that peeps might see it n play it! 
mail me with comments, id love to kno what u think: [email protected]

WITH EVERY

Capo on II fret

INTRO

e|0-------0-------0---------------0-------0-------0---------------|
b|1-------1-------1---------------1-------1-------1---------------|
g|3-------2-------0---------------3-------2-------0---------------|
d|----------------------------------------------------------------|
a|----------------------------------------------------------------|
E|----------------------------------------------------------------|

e|0-------0-------0---------------0-------0-------0---------------|
b|1-------1-------0---------------1-------1-------0---------------|
g|3-------2-------1---------------3-------2-------1---------------|
d|0-------2-------2---------------0-------2-------2---------------|
a|----------------2-------------------------------2---------------|
E|----------------------------------------------------------------|


CHORUS

C		Em		G               E
e|-0--		e|-0--		e|-3--		e|-0--
b|-1--		b|-0--		b|-0--		b|-0--
g|-0--		g|-0--		g|-0--		g|-1--
d|-2--		d|-2--		d|-0--		d|-2--
a|-3--		a|-2--		a|-2--		a|-2--
E|---- 		E|-0-- 		E|-3-- 		E|-0--

CHORDS: C Em C Em G E G E

VERSE

e|0------0---3-----0------0---------0----------0-2---3-----3------|
b|1--------1---1---1--------1-0-----0--------0-------0----0-------|
g|0----0-----------0------------0---0------0---------0---0--------|
d|3-----3----------2----2-----------2-----2----------0-------0----|
a|-----------------3-----3----------2----2-----------2---------2--|
E|----------------------------------0----------------3------------|

ENDING

Am		Asus2		
e|-0--		e|-0--		
b|-1--		b|-0--		
g|-2--		g|-2--		
d|-0--		d|-2--		
a|-0--		a|-0--		
E|-0-- 		E|-0-- 		

CHORDS: E Em E Em Am Asus2 Am Asus2


Текст, аккорды и табулатура для песни "Mike Fisher - With Every", исполняет "Misc Your Songs".
Используемые в песне аккорды можно найти в разделе Как брать аккорды. Аккорды для шестиструнной гитары. Другие песни можно найти на нашем сайте, воспользовавшись алфавитным указателем вверху страницы.


 
Ошибка в тексте? Выделите ошибку и нажмите Ctrl+Enter