-------------------------------------------------------------------------------
			     Just Like A year Ago
-------------------------------------------------------------------------------

Tabbed by: Jake

Tuning: Eb Ab Db Gb Bb eb

Intro (phaser, delay) X2:
eb|-----------------------------|
Bb|-----------------------------|
Gb|-----------------------------|
Db|-x-(x)-(x)-(x)-x-(x)-(x)-(x)-|
Ab|-x-(x)-(x)-(x)-x-(x)-(x)-(x)-|
Eb|-x-(x)-(x)-(x)-x-(x)-(x)-(x)-|

Verse (clean) X6
eb|-0--------------0----------------|
Bb|-1----1----3----1----1----3------|
Gb|-2----2----4----2----2----4--1-0-|
Db|-2----3----5----2----3----5--3-2-|
Ab|-0----3----5----0----3----5--3-2-|
Eb|------1----3---------1----3--1-0-|

Chorus (distortion) X2
eb|--------------------------------|
Bb|--------------------------------|
Gb|--------------------------------|
Db|-7----3----5----7----3----5-3-2-|
Ab|-7----3----5----7----3----5-3-2-|
Eb|-5----1----3----5----1----3-1-0-|
PM_____________________________^_^_

solo (phaser, slight delay) X1
eb|--------------------------------------------------------9---xx-------------|
Bb|-12------12------xx-12-----12---------12-----------12-------xx-------------|
Gb|----11------11---xx----11-----11---------9-------9----9---9-xx-------------|
Db|-------9-------9-xx-------9------9-11------11-11------------xx-------------|
Ab|---------------------------------------------------------------------------|
Eb|---------------------------------------------------------------------------|

solo con't
eb|--------------12--------9~|
Bb|---------12--------12-----|
Gb|-------9----9----9----9---|
Db|-11-11--------------------|
Ab|--------------------------|
Eb|--------------------------|

| /  slide up
|   slide down
| h  hammer-on
| p  pull-off
| ~  vibrato
| +  harmonic
| x  Mute note

===============================================================================


Текст, аккорды и табулатура для песни "Just Like A Year Ago", исполняет "Misc Your Songs".
Используемые в песне аккорды можно найти в разделе Как брать аккорды. Аккорды для шестиструнной гитары. Другие песни можно найти на нашем сайте, воспользовавшись алфавитным указателем вверху страницы.


 
Ошибка в тексте? Выделите ошибку и нажмите Ctrl+Enter