-------------------------------------------------------------------------
			     Heavy Metal (Thunder) - White Lightning
-------------------------------------------------------------------------
Written by:Scott Beeler
Email:[email protected]

Tuning: Standard
Play it with some drive, but not too much to over power the sound.

Intro
e|-----------------------0----------------------3---------0-0x-----------|
B|-3-3-3-33------------3-0--3-3-3-----3-3-3-------------3---0x-----------|
G|-0-0-2-22-2-2--2h4p2------0-2-2-2p0-0-2-2-222---2h4p0-----0x-----------|
D|-0-0-0-00-2-2-------------0-0-0-2p0-0-0-0-222--------------------------|
A|-x-x------0-0-------------x-----0h3-x-----000--------------------------|
E|-3-3----------------------3---------3----------------------------------|

Verse
e|-----------------------0-------------3---------0-----------------------|
B|-3-3-3-33------------3-0--3-3-3--------------3-0-----------------------|
G|-0-0-2-22-2-2--2h4p2------0-2-2--2-22--2h4p0---------------------------|
D|-0-0-0-00-2-2-------------0-0-0--2-22----------------------------------|
A|-x-x------0-0-------------x------0-00----------------------------------|
E|-3-3----------------------3--------------------------------------------|

e|---------------------0---------------3---------0-0x--------------------|
B|-3--3-3------------3-0---3-3-3---------------3-0-0x--------------------|
G|-0--2-2-2-22--2h4p2------0-2-2--2-22---2h4p0-----0x--------------------|
D|-0--0-0-2-22-------------0-0-0--2-22-----------------------------------|
A|-x------0-00-------------x------0-00-----------------------------------|
E|-3-----------------------3---------------------------------------------|

Riff
e|----------------3--------------------3---------------------------------|
B|----6----------3-3p0------6---------3-3p0----3-3-3---------------------|
G|--57-56---2h4p2-----2---57-56--2h4p2-----2---0-2-2-2-22----------------|
D|-7-----5---------------7-----5---------------0-0-0-2-22----------------|
A|---------------------------------------------x-----0-00----------------|
E|---------------------------------------------3-------------------------|

Chorus
e|-----------------------------------------------------------------------|
B|---33-3---------3-3---3-------3-3-3------------------------------------|
G|---00-2-22----2-2-0-2-2-----2-0-2-0-22---------------------------------|
D|-2-00-0-22--2-2-0-0-2-0-22--2-0-0-0-22---------------------------------|
A|-2-xx---00--2-0---x-0---22--0-x---x-00---------------------------------|
E|-0-33-------0-----3-----00----3---3------------------------------------|

Outro
e|-----------------------0----------------------3---------0--------------|
B|-3-3-3-33------------3-0--3-3-3-----3-3-3-------------3----------------|
G|-0-0-2-22-2-2--2h4p2------0-2-2-2p0-0-2-2-222---2h4p0---------0~--0x---|
D|-0-0-0-00-2-2-------------0-0-0-2p0-0-0-0-222-----------------2~--0x---|
A|-x-x------0-0-------------x-----0h3-x-----000-----------------2~--0x---|
E|-3-3----------------------3---------3-------------------------0~--0x---|



Song Order

Intro 
Verse 
Riff  
Chorus
Verse 
Chorus
Verse
Chorus
Outro


| /  slide up
|   slide down
| h  hammer-on
| p  pull-off
| ~  vibrato
| +  harmonic
| x  Mute note
==========================================================================


Текст, аккорды и табулатура для песни "Heavy Metal Thunder", исполняет "Misc Your Songs".
Используемые в песне аккорды можно найти в разделе Как брать аккорды. Аккорды для шестиструнной гитары. Другие песни можно найти на нашем сайте, воспользовавшись алфавитным указателем вверху страницы.


 
Ошибка в тексте? Выделите ошибку и нажмите Ctrl+Enter