Hey all I made this up. It sounds cool, i haven't made a solo yet but i have a
whole intro and chorus for ya. Feel free to use this if you like it, thats why
its here....

Intro

Soft distortion
(tap soft 2 make acoustic sound)
--------------------|
--------------------|
-----12------12-----|play 4 times
---13--13--13--13---|(getting louder) 
-11------11------11-|
--------------------|

distortion
--------------------|
--------------------|
-----12------12-----|play 4 times
---13--13--13--13---|(getting faster) 
-11------11------11-|
--------------------|

----------------------------|
----------------------------|
-----12--12--12--12--12-----| end with this
---13--13--13--13--13--13~~-|
----------------------------|
----------------------------|

-----------------------------
-----------------------------
-12-12-12-12-----------------
-13-13-13-13---------5-4-2~~~
-11-11-11-11--3-2-00-5-4-2~~~
--------------1-0-00-3-2-0~~~
                                              |-echo-|
----------------------------------------------------------|
-----------------------------------------------^-^-^^-----|
------0---0---0-----0---0---0-----0---0---0----0-0-00~~~--|
~~~--5-5-5-5-5-5---7-7-7-7-7-7---9-9-9-9-9-9---9-9-99~~~--|
~~~/3---3---3---3/5---5---5---5/7---7---7---7~-7-7-77~~~--|
----------------------------------------------------------|

clean elctric                               |-echo-|
------------------------------------------------------|
------------------------------------------------------|
---0-----0---0---0---0-----0---0---0---0-----2-2-22~~-|
--9-9---7-7-7-7-7-7-7-7---5-5-5-5-5-5-5-5----2-2-22~~-|
-7---75---5---5---5---53---3---3---3---3~~-0-0-00~~-|
------------------------------------------------------|

                                              |-echo-|
----------------------------------------------------------|
-----------------------------------------------^-^-^^-----|
------0---0---0-----0---0---0-----0---0---0----0-0-00~~~--|
~~~--5-5-5-5-5-5---7-7-7-7-7-7---9-9-9-9-9-9---9-9-99~~~--|
~~~/3---3---3---3/5---5---5---5/7---7---7---7~-7-7-77~~~--|
----------------------------------------------------------|

think of the chorus yourselves lol.. sometime i'll add one. Solo's should be
something you think of so that its truly yours. Thats why i'm not posting any..
Maybe later... Please rate this, and don't rate it low cause its not a real song,
just put what you think. Leave your thought in the comments part please.


Текст, аккорды и табулатура для песни "Generic Storm - Still I See", исполняет "Misc Your Songs".
Используемые в песне аккорды можно найти в разделе Как брать аккорды. Аккорды для шестиструнной гитары. Другие песни можно найти на нашем сайте, воспользовавшись алфавитным указателем вверху страницы.


 
Ошибка в тексте? Выделите ошибку и нажмите Ctrl+Enter