---12-12--9-14--12--9----9-----------------
----------------------10---9--------------
-------------------------------------------
-------------------------------------------
-------------------------------------------
------------------------------------------- x2


---12--12--9--14--12--14--12--9---9--------
---------------------------------9---10----
-------------------------------------------
-------------------------------------------
-------------------------------------------
------------------------------------------- x2

This Is My Own Band So I Hope You Like It!


Текст, аккорды и табулатура для песни "Chili Peppers - My Song", исполняет "Misc Your Songs".
Используемые в песне аккорды можно найти в разделе Как брать аккорды. Аккорды для шестиструнной гитары. Другие песни можно найти на нашем сайте, воспользовавшись алфавитным указателем вверху страницы.


 
Ошибка в тексте? Выделите ошибку и нажмите Ctrl+Enter