This is a song from my band we're not big but we're good.
You decide.

Drop D

Intro
e---------------------------------------------------------
B---------------------------------------------------------
G---------------------------------------------------------
d---------------------------------------------------------
A-----33-------22--12-------33--00--42-232   *2 times
D--22-----00------1------22-----------2---  


Chorus

e---------------------------------------------------------
B---------------------------------------------------------
G---------------------------------------------------------
d---2-223-300-52-222-220-033-5--7-------------------------
A---2-223-300-52-222-220-033-5--7-------------------------
D---2-223-300-52-222-220-033-5--7-------------------------

e---------------------------------------------------------
B---------------------------------------------------------
G---------------------------------------------------------
d---2-223-300-52-222-220-033-5-7--------------------------
A---2-223-300-52-222-220-033-5-7--------------------------
D---2-223-300-52-222-220-033-5-7--------------------------

verse2

(same as verse 1)

Bridge 1

e---------------------------------------------------------
B---------------------------------------------------------
G---------------------------------------------------------
d---------------------------------------------------------
A--232--1-2-----232--1-2------232--1-2-----232-3-5-2------
D-2----------1-2----------1-2-----------1-2---------------

Chorus

Verse3

(same as verse 1 & 2)

Bridge2

e---------------------------------------------------------
B---------------------------------------------------------
G---------------------------------------------------------
d-23-023-023-050--23-023-023-57---------------------------
A-23-023-023-050--23-023-023-57---------------------------
D-23-023-023-050--23-023-023-57---------------------------

e---------------------------------------------------------
B---------------------------------------------------------
G---------------------------------------------------------
d-23-023-023-050--23-023-023-57---------------------------
A-23-023-023-050--23-023-023-57---------------------------
D-23-023-023-050--23-023-023-57---------------------------

Chorus

Solo

e--------------------
B--------------------
G--------------------
d--------------------
A---0787078707870780-
D--------------------

Riff 1  (Kind of swing it on this part)

e-----------------------------
B-----------------------------
G-----------------------------
d--2-230-8--2-230-------------
A--2-230-8--2-230-------------
D--2-230-8--2-230-------------

Repeat solo

Riff 1

Repeat solo

Riff 1

Riff 2

e----------------
B----------------
G----------------
d--3-34-9--3-34-9
A--3-34-9--3-34-9
D--3-34-9--3-34-9

Riff 1

Riff 2

end

Hope you enjoy it! Tell me what you think.  You're our biggest fans.


Текст, аккорды и табулатура для песни "Change", исполняет "Misc Your Songs".
Используемые в песне аккорды можно найти в разделе Как брать аккорды. Аккорды для шестиструнной гитары. Другие песни можно найти на нашем сайте, воспользовавшись алфавитным указателем вверху страницы.


 
Ошибка в тексте? Выделите ошибку и нажмите Ctrl+Enter