justin dean
hey everybody. this is a song i wrote. ya'll may like it or not but i thought i'd share. 
so here it goes...

song title: blur
artist: justin dean
drop Db tunning:
low to high: Db Ab Db Gb Bb Eb

key:
p    = pull off
p.m. = palm mute
m    = mute
~    = vibrato
/    = slide down
fb   = full bend

(there is an acoustic guitar that plays along with everything that the clean and distorted 
guitars do it just gives it a little extra sumthing)


(clean tone)
introverse1:
Eb|---------------------------------------------------------
Bb|---------------------------------------------------------
Gb|----7---7---7--------7---7---7---------7---7---7---------
Db|--7---7---7---7----7---7---7---7-----7---7---7---7-------
Ab|5----------------4-----------------3---------------------
Db|0----------------0-----------------0---------------------

Eb|---------------------------------
Bb|---------------------------------         intro:2x
Gb|------7---7---7------------------         verse:4x
Db|----5---5---5---5----------------
Ab|--5---------------5--------------
Db|--5-----------------5------------


(clean tone)
chours:
Eb|-----------------------------------
Bb|-----------------------------------
Gb|-----------------------------------
Db|-5----7-9-7-5------4----7-9-7-4----
Ab|-5----5-5-5-5------4----4-4-4-4----
Db|-5----5-5-5-5------4----4-4-4-4----
                                          chours:2x

Eb|------------------------------------
Bb|------------------------------------
Gb|------------------------------------     end on:
Db|-7----9-11-9-7-----6----9-11-9-6----     Db|-6--7-9p7-6p5
Ab|-7----7--7-7-7-----6----6--6-6-6----     Ab|-6-----------
Db|-7----7--7-7-7-----6----6--6-6-6----     Db|-6-----------

play this after the 1st chours only:
Eb|---------------------------------------------------------
Bb|---------------------------------------------------------
Gb|-7--7---777-----7--7---777-----7--7---777-----7----7-77--
Db|-5--5---555-----4--4---444-----3--3---333-----5----5-55--
Ab|-5--5---555-----4--4---444-----3--3---333-----5----5-55--
Db|-5--5---555-----4--4---444-----3--3---333-----5----5-55--

(clean tone)
introverse2:
Eb|---------------------------------------------------------
Bb|---------------------------------------------------------
Gb|----7---7---7--------7---7---7---------7---7---7---------
Db|--7---7---7---7----7---7---7---7-----7---7---7---7-------
Ab|5----------------4-----------------3---------------------
Db|0----------------0-----------------0---------------------

Eb|---------------------------------
Bb|---------------------------------         intro:2x
Gb|------7---7---7------------------         verse:2x
Db|----5---5---5---5----------------
Ab|--5---------------5--------------
Db|--5-----------------5------------

then after 2nd verse play this:
distortion:
Eb|-------------------------
Bb|-------------------------
Gb|-------------------------
Db|-555555555555555---------
Ab|-555555555555555---------
Db|-555555555555555---------
p.m._______________
volume swell


Текст, аккорды и табулатура для песни "Blur", исполняет "Misc Your Songs".
Используемые в песне аккорды можно найти в разделе Как брать аккорды. Аккорды для шестиструнной гитары. Другие песни можно найти на нашем сайте, воспользовавшись алфавитным указателем вверху страницы.


 
Ошибка в тексте? Выделите ошибку и нажмите Ctrl+Enter