Intro/Verse:
G:--------------------------------------------------------
D:--------------------------------------------------------
A:--------------8-8-8--8-8-8--------------3-3-3-3-2-2-2-2-
E:-5-5-5--5-5-5--------------3-3-3--3-3-3-----------------

Chorus:
G:------------------------------------------------
D:------------------------------------------------
A:-------------------------3-3--3-3-3-------------
E:-5-5--5-5-5--1-1--1-1-1--------------3-3--3-3-3-

G:------------------------------------------------------
D:------------------------------------------------------
A:--------------3-3-3--3-3-3--------------3-3--3-2-2--2-
E:-5-5-5--5-5-5--------------3-3-3--3-3-3---------------

Bridge:
G:-------------------------------------------------------
D:---------------------------------0-2-0-----------------
A:-0--0-2-3-2-0---------------3--3-------3---------------
E:--------------1--1-1--1-1-1--------------3--3-3--3-3-3-

Solo:
G:-----------------------------------------------------------
D:-----------------------------------------------------------
A:---7-7---7-7------7---7---7-----5-5---5-5------5---5---5---
E:-5-----5-----5--5---5---5---5-3-----3-----3--3---3---3---3-

G:-----------------------------------------------------------
D:-----------------------------------------------------------
A:---3-3---3-3------3---3---3-----2-2---2-2------------------
E:-1-----1-----1--1---1---1---1-0-----0-----0--0-0-0-1-1-3-3-

This is a sweet song that I wrote, and later got the rest of Black Tie Affair to
write parts to.  It's just a basic tab.  Repeat parts as many times as necessary.


Текст, аккорды и табулатура для песни "Black Tie Affair - Hell In A Handbasket", исполняет "Misc Your Songs".
Используемые в песне аккорды можно найти в разделе Как брать аккорды. Аккорды для шестиструнной гитары. Другие песни можно найти на нашем сайте, воспользовавшись алфавитным указателем вверху страницы.


 
Ошибка в тексте? Выделите ошибку и нажмите Ctrl+Enter