THIS IS A GREAT INSTUMENTAL SONG, WITH STEEL STRINGS.

Standard Tuning: E,A,D,G,B,E
This is the rythmn part of the song. If you like it e-mail me at
[email protected] and I will give you the rest of the song.
It sounds good no matter how fast you play it!

--------------------------------------
--------------------------------------
--------0-------------------0---------   4x
---4------4---4---------0-----0---0---
------2-----2---2----------2-----0---0
0--------------------3----------------

---------------------------------------
---------------------------------------
---0------0----0-----2-----2-----2-----  4x
-----4------4----------4-----4---------
-2-----2------2----0-----0-----0-------
---------------------------------------

----------------------------------------
--------0----------------0--------------
------0---0------------0---0------------  4x
----4-------4--------0-------0----------
--2----------------2-----------2--------
0-------------0--3----------------------

--------0--------------0--------0------
------0---0----------0--------0--------
----0-------0------0--------0----------  4x
--2-----------2------------------------
2----------------2--------0------------
0----------------3--------2------------

--------------------------------    |------------------------------
--------------------------------    |------------------------------
---0-----0-----0---0-----0-----0 


Текст, аккорды и табулатура для песни "Asma - Phantom Whispers", исполняет "Misc Your Songs".
Используемые в песне аккорды можно найти в разделе Как брать аккорды. Аккорды для шестиструнной гитары. Другие песни можно найти на нашем сайте, воспользовавшись алфавитным указателем вверху страницы.


 
Ошибка в тексте? Выделите ошибку и нажмите Ctrl+Enter