Intro

Eb :------------------------------------------------------------------------|
Bb :------------------------------------------------------------------------|
Gb :------------------------------------------------------------------------|
Db :---------3-2---2-----------3-2---2-----------3-2-----2---------3-2-2-5-4|
Ab :-----3-5-----3---------3-5-----3---------3-5-----3---------3-5-----3-7-5|
Eb :-2-5-------------3-2-5-------------3-2-5-----------3---2-5--------------|
Ab :------------------------------------------------------------------------|

Verse x2

Eb :--------------------------------------------------------------------------|
Bb :--------------------------------------------------------------------------|
Gb :--------------------------------------------------------------------------|
Db :-----------2-----9-----------2-----5-----------2-------------------4-5-2--|
Ab :-----2-----3-----7-----2-----3-----7-----2-----3----------2-----5-7-3-2|
Eb :-0-0-0-0-0---0-0-0-0-0-0-0-0---0-0---0-0-0-0-0---0-0-----0-0-0-0-0-------0|
Ab :--------------------------------------------------------------------------|

Eb :--------------------------------------------------------------------------|
Bb :--------------------------------------------------------------------------|
Gb :-----------2-----9-----------2-----7-----------2-------------------4-5-2--|
Db :-----2-----3-----7-----2-----3-----5-----2-----3----------2-----5-7-3-2|
Ab :-0-0-0-0-0---0-0-0-0-0-0-0-0---0-0---0-0-0-0-0---0-0-----0-0-0-0-0-------0|
Eb :--------------------------------------------------------------------------|
Ab :--------------------------------------------------------------------------|

Prechorus

Eb :------------------------------------------------------------------------|
Bb :------------------------------------------------------------------------|
Gb :------------------------------------------------------------------------|
Db :---------3-2---2-----------3-2---2-----------3-2-----2---------3-2-2-5-4|
Ab :-----3-5-----3---------3-5-----3---------3-5-----3---------3-5-----3-7-5|
Eb :-2-5-------------3-2-5-------------3-2-5-----------3---2-5--------------|
Ab :------------------------------------------------------------------------|

Verse x4

Eb :--------------------------------------------------------------------------|
Bb :--------------------------------------------------------------------------|
Gb :--------------------------------------------------------------------------|
Db :-----------2-----9-----------2-----5-----------2-------------------4-5-2--|
Ab :-----2-----3-----7-----2-----3-----7-----2-----3----------2-----5-7-3-2|
Eb :-0-0-0-0-0---0-0-0-0-0-0-0-0---0-0---0-0-0-0-0---0-0-----0-0-0-0-0-------0|
Ab :--------------------------------------------------------------------------|

Eb :--------------------------------------------------------------------------|
Bb :--------------------------------------------------------------------------|
Gb :-----------2-----9-----------2-----7-----------2-------------------4-5-2--|
Db :-----2-----3-----7-----2-----3-----5-----2-----3----------2-----5-7-3-2|
Ab :-0-0-0-0-0---0-0-0-0-0-0-0-0---0-0---0-0-0-0-0---0-0-----0-0-0-0-0-------0|
Eb :--------------------------------------------------------------------------|
Ab :--------------------------------------------------------------------------|

Prechorus

Eb :------------------------------------------------------------------------|
Bb :------------------------------------------------------------------------|
Gb :------------------------------------------------------------------------|
Db :---------3-2---2-----------3-2---2-----------3-2-----2---------3-2-2-5-4|
Ab :-----3-5-----3---------3-5-----3---------3-5-----3---------3-5-----3-7-5|
Eb :-2-5-------------3-2-5-------------3-2-5-----------3---2-5--------------|
Ab :------------------------------------------------------------------------|


Chorus x4

Eb :-------------------------------------|
Bb :-------------------------------------|
Gb :-------------------------------------|
Db :3 /5-5-5-5-5-5-5-5-5-/7-7-7-7-7-7-7-7|
Ab :3--3-3-3-3-3-3-3-3-5--5-5-5-5-5-5-5-5|
Eb :3--3-3-3-3-3-3-3-3-5--5-5-5-5-5-5-5-5|
Ab :3--3-3-3-3-3-3-3-3-5--5-5-5-5-5-5-5-5|

Bridge A

Eb :---------------------------------------------------------------------------------------|
Bb :---------------------------------------------------------------------------------------|
Gb :---------------------------------------------------------------------------------------|
Db :-------------------------------------------3-3-3-3-3-3-3-3-3-5-5-5-5-5-5-5-5-5---------|
Ab :-------------------------------------------3-3-3-3-3-3-3-3-3-5-5-5-5-5-5-5-5-5-5h8/3-p0|
Eb :-------------------------3-3-3-3-3-3-3-3-3-5-5-5-5-5-5-5-5-5-5h8/3-p0|
Ab :3-3-3----3-3-3-------3-3-3----3-3-3--------3-3-3-3-3-3-3-3-3-5-5-5-5-5-5-5-5-5-5h8/3-p0|

Bridge B

Eb :-------------------------------------|
Bb :-------------------------------------|
Gb :-------------------------------------|
Db :3 /5-5-5-5-5-5-5-5-5-/7-7-7-7-7-7-7-7|
Ab :3--3-3-3-3-3-3-3-3-5--5-5-5-5-5-5-5-5|
Eb :3--3-3-3-3-3-3-3-3-5--5-5-5-5-5-5-5-5|
Ab :3--3-3-3-3-3-3-3-3-5--5-5-5-5-5-5-5-5|

Solo Section

Eb :------------------------------------------------------------------------------8-h12----8-h12---
Bb :------------------------------------------------------------------------9-/12-------11-------11
Gb :----------------------------------------------------------------------8------------------------
Db :-3-/5-----------------3-/5-----------------3-/5---------------3-/5-/7--------------------------
Ab :-3--3-----------------3--3-----------------3-/5-------------3----------------------------------
Eb :-3--3-----------------3--3-----------------3-/5-----------3------------------------------------
Ab :-3--3-0-0-0-0-0-0-0-0-3--3-0-0-0-0-0-0-0-0-3-/5-0-0-0-0-3--------------------------------------

Eb :-8-h12-/15-------------------------------------------------------------------------------------
Bb :-----------17-p15-12-12-h13-t17-12-h13-t17-p12-h13-t17-p12-h13-t17-p12-h13-t17-p12-h13-t17-p12
Gb :-----------------------------------------------------------------------------------------------
Db :-----------------------------------------------------------------------------------------------
Ab :-----------------------------------------------------------------------------------------------
Eb :-----------------------------------------------------------------------------------------------
Ab :-----------------------------------------------------------------------------------------------

Eb :--------------------12-h15-t18-p12-h15-t18-p12-h15-t18-p12-h15-t18-p18-19^21^|
Bb :h13-t17-p12-h13-t17----------------------------------------------------------|
Gb :-----------------------------------------------------------------------------|
Db :-----------------------------------------------------------------------------|
Ab :-----------------------------------------------------------------------------|
Eb :-----------------------------------------------------------------------------|
Ab :-----------------------------------------------------------------------------|


Verse x2

Eb :--------------------------------------------------------------------------|
Bb :--------------------------------------------------------------------------|
Gb :--------------------------------------------------------------------------|
Db :-----------2-----9-----------2-----5-----------2-------------------4-5-2--|
Ab :-----2-----3-----7-----2-----3-----7-----2-----3----------2-----5-7-3-2|
Eb :-0-0-0-0-0---0-0-0-0-0-0-0-0---0-0---0-0-0-0-0---0-0-----0-0-0-0-0-------0|
Ab :--------------------------------------------------------------------------|

Eb :--------------------------------------------------------------------------|
Bb :--------------------------------------------------------------------------|
Gb :-----------2-----9-----------2-----7-----------2-------------------4-5-2--|
Db :-----2-----3-----7-----2-----3-----5-----2-----3----------2-----5-7-3-2|
Ab :-0-0-0-0-0---0-0-0-0-0-0-0-0---0-0---0-0-0-0-0---0-0-----0-0-0-0-0-------0|
Eb :--------------------------------------------------------------------------|
Ab :--------------------------------------------------------------------------|

Prechorus

Eb :------------------------------------------------------------------------|
Bb :------------------------------------------------------------------------|
Gb :------------------------------------------------------------------------|
Db :---------3-2---2-----------3-2---2-----------3-2-----2---------3-2-2-5-4|
Ab :-----3-5-----3---------3-5-----3---------3-5-----3---------3-5-----3-7-5|
Eb :-2-5-------------3-2-5-------------3-2-5-----------3---2-5--------------|
Ab :------------------------------------------------------------------------|


Chorus x4

Eb :-------------------------------------|
Bb :-------------------------------------|
Gb :-------------------------------------|
Db :3 /5-5-5-5-5-5-5-5-5-/7-7-7-7-7-7-7-7|
Ab :3--3-3-3-3-3-3-3-3-5--5-5-5-5-5-5-5-5|
Eb :3--3-3-3-3-3-3-3-3-5--5-5-5-5-5-5-5-5|
Ab :3--3-3-3-3-3-3-3-3-5--5-5-5-5-5-5-5-5|


Текст, аккорды и табулатура для песни "Alpha", исполняет "Misc Your Songs".
Используемые в песне аккорды можно найти в разделе Как брать аккорды. Аккорды для шестиструнной гитары. Другие песни можно найти на нашем сайте, воспользовавшись алфавитным указателем вверху страницы.


 
Ошибка в тексте? Выделите ошибку и нажмите Ctrl+Enter