Author: Da Fat Monkey ([email protected] -
http://www.dafatmonkey.co.uk/)

Song(s): WWF Theme Tunes - The Rock, Triple H, Stone Cold Steve Austin,
Hulk Hogan, The Ultimate Warrior, D-Generation-X, Road Dogg, Billy Gunn,
Mideon, Mick Foley (Mankind) - All copyright WWFE 1984-2000

There was a WWF theme page here already, but all of the tabs were either
incorrect or outdated, or both. Here are several accurate tabs:

--------------------------------------------------------------------------

THE ROCK

Main (only!) riff:
G ----------------------
D ----------------------
A 0---2-3------5-4-5--4-
E ---------3------------

TRIPLE H

Intro/Verses/Solos:
G ---------------
D ---------------
A ---------------
E 0-0----0-0-----

Chorus:
G ---------------
D ---------------
A ------------3-2
E 0-0-3-2-0-0----

STONE COLD

This is his old music. I can't pick out the bassline for his new theme but
I'm reliably informed it is just a re-working so it should be the same.

Intro/Verse:
G -------------
D -------------
A -------------
E 0-0--0-1--0-0

Chorus:
G ----------------------------------------------
D ----------------------------------------------
A ----------------------------------------------
E 0-6--0-6--0-6--0-6-7-7--0-6--0-6--0-6--0-6-5-5

HOGAN

Main Riff:
G -------------------
D -------------------
A -------------------
E 5--3--2--0--5-5-3-5

WARRIOR

Riff 1:
G ----------------------------
D ----------------------------
A ----------------------------
E 0-------3-5-3--0-------5-3-3

Riff 2:
G ------------------------------------------------------------
D ------------------------------------------------------------
A ------------------------------------------------------------
E 0-0-0-0-0-0-0-0-0-0-0-0--3--5--0-0-0-0-0-0-0-0-0-0-0-0--5--3

DX

Intro:
G ---------------------------------------------------
D ---------------------------------------------------
A ---------------------------------------------------
E 0-0-10-0-0-10-0-0-10-0-0-10-0-0-10-0-0-10-0-0-0-0-0

Verses:
G ------------------------------------------------
D ------------------------------------------------
A ------5------5-7-7-7-7--------5------2-2-3-3-2-2
E 0-0-0----0-0------------0-0-0----0-0------------

MICK FOLEY (MANKIND THEME)

Main Riff:
G -----------------
D -----------------
A 5-5-5------------
E -------2-2--0-0-0

BILLY GUNN (ASSMAN THEME)

Intro:
G ----------
D ----------
A ----------
E 0-0---0-0-

Verse:
G ------------------------------------------------------------------
D ------------------------------------------------------------------
A -----------------2-2-2-2-2-2-2-2-------------------0-0-0-0-0-0-0-0
E 0-0-0-0-0-0-0-0-------------------2-2-2-2-2-2-2-2-----------------

Chorus Riff 1:
G
D
A ----------------2-2-2-2-2-2-----------------2-2-2-2-2-2--
E 0-0-0-0-0-0-0----------------0-0-0-0-0-0-0---------------

Chorus Riff 2:
G ----------------------------
D ----------------------------
A ----------------------------
E 2-2-2-2-2-2-2--5-5-5-5-5-5-5

ROAD DOGG

Riff 1:
G -------
D -------
A -------
E 0-0-3-0

Riff 2:
G -------------------
D -------------------
A 3-3-3--------------
E ------3-3-3-0-0-3-0

MIDEON

Riff 1:
G -----
D -----
A -----
E 0-0-3

Riff 2:
G -----------
D -----------
A -----------
E 0-0-0-3-1-1


Текст, аккорды и табулатура для песни "Wwf Wrestler Themes", исполняет "Misc Wwf".
Используемые в песне аккорды можно найти в разделе Как брать аккорды. Аккорды для шестиструнной гитары. Другие песни можно найти на нашем сайте, воспользовавшись алфавитным указателем вверху страницы.


 
Ошибка в тексте? Выделите ошибку и нажмите Ctrl+Enter