Wrestling Entrance Themes 

Tabbed by Daniel Ott 
[email protected] 
www.angelfire.com/ky/dankind 

The Rock's Theme 
(Tabbed by Chris Chinn) 
  

G]-------------------------------------------------- 
D]-------------------------------------------------- 
A]-------------------------------------------------- 
E]--2--2--2-2-4-5--5-5-5-0--0--7--5--0-------------- 

Hulk Hogan (WWF) 
  

G]-------------------------------------------------- 
D]-------------------------------------------------- 
A]-------------------------------------------------- 
E]--5--3--2--0--5-5-3-5-----5-5--3--2--0--8--8--6-5- 
  

Ultimate Warrior (WWF) 

Part 1 

G]--------------------- 
D]--------------------- 
A]--------------------- 
E]0--5-3-0----7-7-5-3-0 

Part 2 

G]------[----- 
D]------[----- 
A]------[----- 
E]--3-5-[--5-3 
*on part 2 hit E open a bunch of times before each little part 
  

Stone Cold Steve Austin 
  

Part 1     Part 2    Part 3 

G]---------------------------------------------------------------------------------------- 
D]---------------------------------------------------------------------------------------- 
A]---------------------------------------------------------------------------------------- 
E]--0-0--0-1--0-0---0-0--0-1--0-0---0-1-1-2---0-6-0-6-0-6-0-6--0-0-7--0-6-0-6-0-6-0-6--7-6 
  

D-Generation X 

Part 1 

G]-------------------------------------------------------------- 
D]-------------------------------------------------------------- 
A]-------------------------------------------------------------- 
E]-0-0-0-10---0-0-10-10-12-12-12-12---0-0-0-10---0-0-7-7-8-8-7-7 

Part 2 
G]------------------------------------------- 
D]------------------------------------------- 
A]------------------------------------------- 
E]-0--12-10-12--7-8-5----0--12-10-12--7-8-5-3 


Текст, аккорды и табулатура для песни "Wrestling Themes", исполняет "Misc Wwf".
Используемые в песне аккорды можно найти в разделе Как брать аккорды. Аккорды для шестиструнной гитары. Другие песни можно найти на нашем сайте, воспользовавшись алфавитным указателем вверху страницы.


 
Ошибка в тексте? Выделите ошибку и нажмите Ctrl+Enter