Intro
------------------------------------------------------------------------------------------------------
------------------------------------------------------------------------------------------------------
------------------------------------------------------------------------------------------------------
---------8-8-6-6-----6----------8-8-6-6-----6---6--------8-8-6-6-----6---6-------8-8-6----------------
-----6-6---------7-7---7-7--6-6---------7-7---7---7--6-6---------7-7---7---7-6-6----------------------
------------------------------------------------------------------------------------------------------


-------------------------------------------------------------
-------------------------------------------------------------
-------------------------------------------------------------
------131313--131313-------------131313--131313--9--11-------
------131313--131313-------------131313--131313--9--11-------
------131313--131313-------------131313--131313--9--11-------



Verse
------------------------------------------------------------------------------------
------------------------------------------------------------------------------------
------------------------------------------------------------------------------------
-------1313131313131313---999---1111111111---1313131313131313---161616---1515151515-
-------1313131313131313---999---1111111111---1313131313131313---161616---1515151515-
-------1313131313131313---999---1111111111---1313131313131313---161616---1515151515-



chours
-------------------------------------------------------------
-------------------------------------------------------------
-------------------------------------------------------------
-------13--13--13-9--9/4--4/6--6-----------------------------
-------13--13--13-9--9/4--4/6--6-----------------------------
-------13--13--13-9--9/4--4/6--6-----------------------------


-------------------------------------------------------------
-------------------------------------------------------------
-------------------------------------------------------------
------131313--131313-------------131313--131313--9--11-------
------131313--131313-------------131313--131313--9--11-------
------131313--131313-------------131313--131313--9--11-------



Verse
------------------------------------------------------------------------------------
------------------------------------------------------------------------------------
------------------------------------------------------------------------------------
-------1313131313131313---999---1111111111---1313131313131313---161616---1515151515-
-------1313131313131313---999---1111111111---1313131313131313---161616---1515151515-
-------1313131313131313---999---1111111111---1313131313131313---161616---1515151515-



chours
-------------------------------------------------------------
-------------------------------------------------------------
-------------------------------------------------------------
-------13--13--13-9--9/4--4/6--6-----------------------------
-------13--13--13-9--9/4--4/6--6-----------------------------
-------13--13--13-9--9/4--4/6--6-----------------------------


SOLO
-------------------------------------------------------------
-------------------------------------------------------------
-------------------------------------------------------------
--------1-1-1---8-6---6----------------1-1-1---8-6---6-------
--------1-1-1-------7---7-5------------1-1-1-------7---------
--------1-1-1--------------------------1-1-1-----------------repeat2x


---------------------------------------------------
---------------------------------------------------
---------------------------------------------------
--------1-1-1--8--6--2--6--2--1-1-1----------------
--------1-1-1--8--6--2--6--2--1-1-1----------------
--------1-1-1--8--6--2--6--2--1-1-1----------------


---------------------------------------------------
---------------------------------------------------
---------------------------------------------------
---------------------------------------------------
---------------------------------------------------
---------13-13-13-9-9-9-13-13-13-9-9-9-9-9-9-11-11-


---------------------------------------------------
---------------------------------------------------
---------------------------------------------------
---------13-13-13-9-9-9-13-13-13-9-9-9-9-9-9-11-11-
---------13-13-13-9-9-9-13-13-13-9-9-9-9-9-9-11-11-
---------13-13-13-9-9-9-13-13-13-9-9-9-9-9-9-11-11-


outro
-------------------------------------------------------------
-------------------------------------------------------------
-------------------------------------------------------------
------131313--131313-------------131313--131313--9--11-------
------131313--131313-------------131313--131313--9--11-------
------131313--131313-------------131313--131313--9--11-------


Текст, аккорды и табулатура для песни "Play The Game", исполняет "Misc Wwf".
Используемые в песне аккорды можно найти в разделе Как брать аккорды. Аккорды для шестиструнной гитары. Другие песни можно найти на нашем сайте, воспользовавшись алфавитным указателем вверху страницы.


 
Ошибка в тексте? Выделите ошибку и нажмите Ctrl+Enter