Band : where 2 next?
Song : dont quit on me now


Hi This tab is 100% righ cause i am the guitarust sand lead singer out
of where 2 next. if you have any questions or want to by this on CD Email
me on [email protected]


Intro

-------------0---------------0---------------------
-------------0---------------0---------------------
-------------0---------------0------5555----7777---
--0-h-2------2---0 h 2-------2------5555----7777---        Repeat twice
--0 h 2------2---0 h 2-------2------3333----5555---
---------0---------------0-------------------------

Verse 
------------0------------------0------------------0--------
----------0---0--------------0---0--------------0---0------
--------0-------0----------7------7-----------5-------5----      Repeat Three times
------2-----------2------7----------7-------5-----------5--
----2------------------5------------------3----------------
--0------------------0------------------0------------------


Chorus
-------------0---------------0-------------------
-------------0---------------0-------------------
-------------0---------------0------7777---5555--
--0-h-2------2---0 h 2-------2------7777---5555--         Repeat three times
--0 h 2------2---0 h 2-------2------5555---3333--
---------0---------------0-----------------------
Solo
-----------------------------------------------------------
-----------------------------------------------------------
-----------------------------------------------------------
------------------------------------------6-6-6-5-5-5------   Repeat three times
---10-10-10-9--9--9--10-10--10--9--9--9---3-3-3-3-3-3------
---0--0--0--0--0--0--0--0---0---0--0--0--------------------

Outro
------------------------------------------------------------------
------------------------------------------------------------------
------------------------------------------------------------------
--9-9--10--9--9----9-9--10-9-9---9 9--10-9-9--8---10101010-9------
--x-x--x---x--x----x-x--x--x-x---x-x--x--x-x--x--x-x-x--x-x-------
--7-7--8---7--7----7-7--8--7-7---7-7--8--7-7--6--8-8-8-8--7-------

Order

Intro
Verse 1
Chorus
Verse 2
Chorus
Solo
Verse 3
Chorus
Outro


Текст, аккорды и табулатура для песни "Where 2 Next - Dont Quit On Me Now", исполняет "Misc Unsigned Bands".
Используемые в песне аккорды можно найти в разделе Как брать аккорды. Аккорды для шестиструнной гитары. Другие песни можно найти на нашем сайте, воспользовавшись алфавитным указателем вверху страницы.


 
Ошибка в тексте? Выделите ошибку и нажмите Ctrl+Enter