Tabbed by Colin Baillio

Vercal Leap is a band from Albuquerque, New Mwxico.  Check out the site @
http://www.webspawner.com/users/qwertcb/index.html

Intro
1----------------------------------------------------
2----------------------------------------------------
3--0-0-2---0-0-2---0-0-2---0-0-2---------------------
4--------3-------0-------3---------------------------
5--------------------------------3-------------------  
6----------------------------------------------------  X2

1----------------------------------------------------
2----------------------------------------------------
3--0-0-2-2--0-0-2-2------2-2-2-2--2-2-2-2------------
4--2-2-2-3--2-2-2-3--X2--2-2-3-0--2-2-3-0--X2--------
5----------------------------------------------------
6----------------------------------------------------

1----------------------------------------------------
2----------------------------------------------------
3----------------------------------------------------
4---0-0-0-0-2-2-2-2----------------------------------
5-------------------0-0-0-0-0-0-0-0------------------
6----------------------------------------------------

Chord Progression: A, C#, A, E, A, D, E, A,  x2

Chorus
1----------------------------------------------------
2----------------------------------------------------
3----------------------------------------------------
4---10--------------10-------------------------------
5---8--10--12--8----8--10--12--8---------------------
6------8---10--6--------8--10--6---------------------

Solo 1
1----------------------------------------------------
2----------------------------------------------------
3----------------------------------------------------
4---12--------5----2-2-2---2-2-2---2-2-2---2-0-0-----
5---10-SLIDE>-3--0-------0-------3-------------------
6----------------------------------------3-----------

Harmony Piece: A, E, D, E, X8

Solo 2
1----------------------------------------------------
2----------------------------------------------------
3----------------------------------------------------
4---0-0-2---0-0-2---0-0-2---0-0-2--------------------
5---------3-------0-------3--------------------------
6----------------------------------3-----------------

End: A, E, D, E,  X2

Intro
Verse
Chorus
Solo 1
Verse
Harmony Piece
Chorus
Solo 2
Verse
End

Lyrics at http://www.webspawner.com/users/qwertcb/index.html


Текст, аккорды и табулатура для песни "Vertical Leap - Transparency", исполняет "Misc Unsigned Bands".
Используемые в песне аккорды можно найти в разделе Как брать аккорды. Аккорды для шестиструнной гитары. Другие песни можно найти на нашем сайте, воспользовавшись алфавитным указателем вверху страницы.


 
Ошибка в тексте? Выделите ошибку и нажмите Ctrl+Enter