http://www.vaginalincest.de

Band: vaginal Incest
Song: Rectal Death

Tabber: John Cukras
Email: [email protected]

Tuning: normal

Riff 1:
E---------------------------
B---------------------------
G---------------------------
D---------------------------
A-----------7~---------5-4--
E-2-000-000----000-000------
pm  ... ...    ... ...

Riff 2:
E------------------------------------
B------------------------------------
G------------------------------------
D------------------------------------
A-444444444-----4444-5555-3333-4444--
E-222222222-----2222-3333-1111-2222--

Riff 3:
E-------------------------------------------------------------------------------------
B-------------------------------------------------------------------------------------
G----------0-----------0--------------7-5-------0-------------0-----------0-----------
D--------0---0-------0---0----------------7-5-6-------------0---0-------0---0---------
A------0-------0-1-0-------0-3----------------------------0-------0-1-0-------0-3--7~-
E-3-00--------------------------3/5------------------3-00-----------------------------

Continued:
E--------------------------------------------------------------------------
B--------------------------------------------------------------------------
G-------------------------------0-----------0----------------7-5-------0---
D------5-7-55-44-33-----------0---0-------0---0------------------7-5-6-----
A------3-5-33-22-11---------0-------0-1-0-------0-3-7~---------------------
E-3-00----------------3-00------------------------------3/5----------------

And Again:
E---------------------------------------------------------------
B---------------------------------------------------------------
G----------0-----------0----------------------------------------
D--------0---0-------0---0----------------5-7-55-44-3-----------
A------0-------0-1-0-------0-3-7~---------3-5-33-22-11----------
E-3-00------------------------------3-00------------------------

Riff 2


Текст, аккорды и табулатура для песни "Vaginal Incest - Rectal Death", исполняет "Misc Unsigned Bands".
Используемые в песне аккорды можно найти в разделе Как брать аккорды. Аккорды для шестиструнной гитары. Другие песни можно найти на нашем сайте, воспользовавшись алфавитным указателем вверху страницы.


 
Ошибка в тексте? Выделите ошибку и нажмите Ctrl+Enter