This is a great new band that I saw live and they kicked ass
you should all check them out at the official website
www.uenonline.com
You can download the full demo from the website

Tunning DADGBe
Song - Amora
Tabbed by ~rhoadsozzy82~
  /= slide
  B= bend
  Pm= palm mute
  *=  pinch harmonic

           verse-  gtr 1  clean   play verse 6x
 e ----------------------------------------------|
 B ----------------------------------------------|
 G ----------------------------------------------|
 D ----3--3--3--3--3--1--1--1--1--1--------------|
 A ---1--1--1--1--1--1--1--1--1--1---------------|
 D --0--0--0--0--3--1--1--1--1--3----------------|
           verse-  gtr 2 clean echo phaser
 e ----------------------------------------------|
 B ----------------------------------------------|
 G ----------------------------------------------|
 D ---15-15-15-15-15--15--15-15-15-15------------|
 A --13-13-13-13-13--13--13-13-13-13-------------|
 D -0--0--0--0--15--13--13-13-13-15--------------|

       chorus-    gtr 1&2 distortion
 e ----------------------------------------------|
 B ----------------------------------------------|
 G ----------------------------------------------|
 D --5555-7b-1111111111--5555-7b-1111111111------|
 A --5555----1111111111--5555----1111111111------|
 D --5555----1111111111--5555----1111111111------|
  pm   --      --  --      --      --  --
       chorus-
 e ----------------------------------------------|
 B ----------------------------------------------|
 G ----------------------------------------------|
 D --5555-7b-1111111111--5555-7b-10-1111111111---|
 A --5555----1111111111--5555-------1111111111---|
 D --5555----1111111111--5555-------1111111111---|
  pm   --      --  --      --         --  --

   verse- distortion   play verse 4x
 e ------------------------------------------------|
 B ------------------------------------------------|
 G ------------------------------------------------|
 D ----3--3--3--3--3--1*--1*--1*--1*--1------------|
 A ---1--1--1--1--1--1*--1*--1*--1*--1-------------|
 D --0--0--0--0--3--1---1---1---1---3--------------|
  pm ----------------------------------------------|

       chorus-    gtr 1&2 distortion
 e ----------------------------------------------|
 B ----------------------------------------------|
 G ----------------------------------------------|
 D --5555-7b-1111111111--5555-7b-1111111111------|
 A --5555----1111111111--5555----1111111111------|
 D --5555----1111111111--5555----1111111111------|
  pm   --      --  --      --      --  --
       chorus-
 e ----------------------------------------------|
 B ----------------------------------------------|
 G ----------------------------------------------|
 D --5555-7b-1111111111--5555-7b-10-1111111111---|
 A --5555----1111111111--5555-------1111111111---|
 D --5555----1111111111--5555-------1111111111---|
  pm   --      --  --      --         --  --

  verse- distortion    play verse 4x
 e ------------------------------------------------|
 B ------------------------------------------------|
 G ------------------------------------------------|
 D ----3--3--3--3--3--1*--1*--1*--1*--1------------|
 A ---1--1--1--1--1--1*--1*--1*--1*--1-------------|
 D --0--0--0--0--3--1---1---1---1---3--------------|
  pm ----------------------------------------------|

 chorus-    gtr 1&2 distortion
 e ----------------------------------------------|
 B ----------------------------------------------|
 G ----------------------------------------------|
 D --5555-7b-1111111111--5555-7b-1111111111------|
 A --5555----1111111111--5555----1111111111------|
 D --5555----1111111111--5555----1111111111------|
  pm   --      --  --      --      --  --
       chorus-
 e ----------------------------------------------|
 B ----------------------------------------------|
 G ----------------------------------------------|
 D --5555-7b-1111111111--5555-7b-10-1111111111---|
 A --5555----1111111111--5555-------1111111111---|
 D --5555----1111111111--5555-------1111111111---|
  pm   --      --  --      --         --  --

        Bridge/solo  gtr 2 distortion echo
 e ----------------------------------------------|
 B ----------------------------------------------|
 G -----------5-----------------5----------------|
 D --0-0000-0-8b-5-7-8-0-0000-0-8b-5-7-8/10------|
 A --5-5555-5----------5-5555-5------------------|
 D ----------------------------------------------|
         gtr 1 Rythem    distortion
 e ----------------------------------------------|
 B ----------------------------------------------|
 G ----------------------------------------------|
 D ----------------------------------------------|
 A --555555558888111111155555555888811111111-----|
 D --555555558888111111155555555888811111111-----|
              Bridge/solo  gtr 2 distortion echo
 e -------------------------------------------------------------|
 B ----15----15----15----15--18-----16----16----16----16--18----|
 G -------------------------------------------------------------|
 D --12--1212--1212--1212--15--15-13--1313--1313--1313--15--15--|
 A -------------------------------------------------------------|
 D -------------------------------------------------------------|              
 gtr 2 distortion echo
 e -------------------------------------------------------------|
 B ----15----15----15----15--18-----16----16----16----16--18----|
 G -------------------------------------------------------------|
 D --12--1212--1212--1212--15--15-13--1313--1313--1313--15--15--|
 A -------------------------------------------------------------|
 D -------------------------------------------------------------|

               chorus-    gtr 1&2 distortion
 e ----------------------------------------------|
 B ----------------------------------------------|
 G ----------------------------------------------|
 D --5555-7b-1111111111--5555-7b-1111111111------|
 A --5555----1111111111--5555----1111111111------|
 D --5555----1111111111--5555----1111111111------|
  pm   --      --  --      --      --  --
               chorus-
 e ----------------------------------------------|
 B ----------------------------------------------|
 G ----------------------------------------------|
 D --5555-7b-1111111111--5555-7b-10-1111111111---|
 A --5555----1111111111--5555-------1111111111---|
 D --5555----1111111111--5555-------1111111111---|
  pm   --      --  --      --         --  --

              Outro-
         gtr 2  distortion  echo
 e ----------------------------------------------|
 B ----------------------------------------------|
 G ----------------------------------------------|
 D ---------------8-1-3-1--8-1-1-3-1-3-1-3-1-3---|
 A --------------5-------5--------------------5--|
 D --5-8-1-5-8-1---------------------------------|
              Outro-
         gtr1   distortion
 e ----------------------------------------------|
 B ----------------------------------------------|
 G ----------------------------------------------|
 D --5-8-1-5-8-1-5-8-1---5-8-1----------------5--|
 A --5-8-1-5-8-1-5-8-1---5-8-1----------------5--|
 D --5-8-1-5-8-1-5-8-1---5-8-1----------------5--|


Текст, аккорды и табулатура для песни "Uen - Amora", исполняет "Misc Unsigned Bands".
Используемые в песне аккорды можно найти в разделе Как брать аккорды. Аккорды для шестиструнной гитары. Другие песни можно найти на нашем сайте, воспользовавшись алфавитным указателем вверху страницы.


 
Ошибка в тексте? Выделите ошибку и нажмите Ctrl+Enter