A Song for the End- by the Two Kings

Tabbed by: HakuroFan23

Standard Tuning: EADGBE

Here is the Two Kings most poular songs, and they're one of the only new bands I
can tolerate, so I had to put out a tab. They are a Ukrainian band by the way,
and I don't know their official website.

e---------|--------|--------|--------|
b-----1---|----1---|----0---|--------|
g-----2---|----2---|----1---|----3---|
d---2---2-|--2--2--|--1---1-|--0-4-0-|   x2
a-0-------|3-------|2-------|1-------|
e---------|--------|--------|--------|

Thats the intro.
The verse goes like this.

e---------|--------|--------|--------|
b-1-1-1-1-|1-1-1-1-|0-0-0-0-|--------|
g-2-2-2-2-|2-2-2-2-|1-1-1-1-|3-3-3-3-|
d---------|--------|--------|4-4-4-4-|
a---------|--------|--------|--------|
e---------|--------|--------|--------|

Heres the best I could do at the solo

e---------|--------|--------|--------|
b-----1---|1-------|----1---|1-------|
g-----2---|--2---2-|----2---|--2---2-|
d---2---2-|----2---|--2---2-|----2---|
a-0-------|--------|3-------|--------|
e---------|--------|--------|--------|

e---------|--------|--------|--------|
b-----0---|0-------|--------|--------|
g-----1---|--1---1-|----3---|3-------|
d---1---1-|----1---|--0-4-0-|--4-0-4-|
a-2-------|--------|1-------|--------|
e---------|--------|--------|--------|

and the ending

e---------|--------|------3-|----1-0-|
b-----1---|----1---|----0---|--0-----|
g-----2---|----2---|--2-----|1-------|
d---2---2-|--2---2-|--------|--------|
a-0-------|3-------|2-------|--------|
e---------|--------|--------|--------|
           Let it ring
e-----0---|5-------|--------|--------|
b---2-----|--------|--------|--------|
g-2-------|--------|--------|--------|
d---------|--------|--------|--------|
a---------|--------|--------|--------|
e---------|--------|--------|--------|


Текст, аккорды и табулатура для песни "Two Kings - A Song For The End", исполняет "Misc Unsigned Bands".
Используемые в песне аккорды можно найти в разделе Как брать аккорды. Аккорды для шестиструнной гитары. Другие песни можно найти на нашем сайте, воспользовавшись алфавитным указателем вверху страницы.


 
Ошибка в тексте? Выделите ошибку и нажмите Ctrl+Enter