The Focas - Squigie Solo
Tabbed by: Jace ([email protected])

Tuning: Standard (E A D G B E)

Best song ever!  I LOVE THE FOCAS

G|-----454--------------------------454--------------------------------------||
D|---------------454------454------------------------------------------------||
A|-----------3-3---------------5-5-------------------------------------------||
E|-3-3----------------5-5----------------------------------------------------||

G|-----454--------------------------454--------------------------------------||
D|---------------454------454------------------------------------------------||
A|-----------3-3---------------5-5-------------------------------------------||
E|-3-3----------------5-5----------------------------------------------------||


Текст, аккорды и табулатура для песни "The Focas - Squigie Solo", исполняет "Misc Unsigned Bands".
Используемые в песне аккорды можно найти в разделе Как брать аккорды. Аккорды для шестиструнной гитары. Другие песни можно найти на нашем сайте, воспользовавшись алфавитным указателем вверху страницы.


 
Ошибка в тексте? Выделите ошибку и нажмите Ctrl+Enter