Artist: The Dions (the greatest high school band ever)
 Members: Dion Oldridge - lead vocalist
          Nathan Moore - drums, backup vocalist
          Lucas Fraser - bass
          Sam Hunt - guitar
 Song: Sam the trolley man

normal tuning EADGBe
strumming
|| / || / ||    ||  || / ||
|| || || || ||    ||  || || ||  < isnt always there
/ || / || /    /  / || /
1  &  2  &  3  &  4   1  &  2  &  3  &  4
                             
Intro

E-7777777-5-4-2-0---7777777-9--4-5-7------------------------
A-9999999-7-6-4-2---9999999-11-6-7-9------------------------
D-9999999-7-6-4-2---9999999-11-6-7-9------------------------
G-----------------------------------------------------------
B-----------------------------------------------------------
e-----------------------------------------------------------

Drums come in
Chorus
E-77-44-5-7-4-0000-44-2-4-----------------------------------
A-99-66-7-9-6-2222-66-4-6-----------------------------------
D-99-66-7-9-6-2222-66-4-6-----------------------------------
G-----------------------------------------------------------
B-----------------------------------------------------------
e-----------------------------------------------------------

Sa--m the trolley man
Doin what he can on his trolley

Verses
E-000000-2-4-444444-5-7-------------------------------------
A-222222-4-6-666666-7-9-------------------------------------
D-222222-4-6-666666-7-9-------------------------------------
G-----------------------------------------------------------
B-----------------------------------------------------------
e-----------------------------------------------------------

Verse 1
he can ring his great aunt molley
sew the head back on dolly

Verse 2
he can give a cracker to polley
give a dion a lolly

sequence

Intro 
Chorus X 2
Verse 1
Chorus X 2
Verse 2
Chorus until fade away

this song is in memory of the original trolley man, who has stopped growing for some 
reason.

The Dions will be going on their world wide tour in late november


Текст, аккорды и табулатура для песни "The Dions - Sam The Trolley Man", исполняет "Misc Unsigned Bands".
Используемые в песне аккорды можно найти в разделе Как брать аккорды. Аккорды для шестиструнной гитары. Другие песни можно найти на нашем сайте, воспользовавшись алфавитным указателем вверху страницы.


 
Ошибка в тексте? Выделите ошибку и нажмите Ctrl+Enter